Sound will begin in 5 seconds

we on that shoegaze shit fam

Chords
01234567891011121314151617181920212223
E
B
G
D
A
E
B
0 1 2 3 4 5 6 7 8 9 10 11 12 13 14 15 16 17 18 19 20 21 22 23
Song Science #1: How Pros Use 6 Chords to Write Hit Songs
(/) Slide Up  (\) Slide Down  (h) Hammer On  (p) Pull Off  (b) Bend (r) Release (v) Vibrato

Stave 1:

E|----------------------------------------------
B|--9--9--9--9--9--9--11--4--4--4--4--4b4--4b4--
G|----------------------------------------------
D|----------------------------------------------
A|----------------------------------------------
E|----------------------------------------------

Stave 2:

E|--------------------------------------------------
B|--------------------------------------------------
G|--------------------------------------------------
D|-----0--0--0--0--0--0--0--0--0--0--0--0--0--0--0--
A|-----9--9--9--9--9--9--7--5--5--5--5--7--7--7--7--
E|-----7--7--7--7--7--7--5--3--3--3--3--5--5--5--5--

Stave 3:

E|--------------------------------------------------------------------------------------------
B|--------------------------------------------------------------------------------------------
G|-----------------------0--0--0--0--0--0--0--0--0--0--0--0--0--0--0--------------------------
D|--0--0--0--0--0--0--0--5--5--5--5--5--5--5--5--7--7--7--7--7--7--7--0--0--0--0--0--0--0--0--
A|--9--9--9--9--9--9--9--3--3--3--3--3--3--3--3--5--5--5--5--5--5--5--7--7--7--7--7--7--7--7--
E|--7--7--7--7--7--7--7--0--0--0--0--0--0--0--0--0--0--0--0--0--0--0--5--5--5--5--5--5--5--5--

Stave 4:

E|--9--9--9--10--9--------------------------
B|------------------10------10------10------
G|----------------------11------11------11--
D|------------------------------------------
A|------------------------------------------
E|------------------------------------------

Stave 5:

E|----------------------------
B|----------------------------
G|--0----------------0--------
D|--9--11--0---0--0--5--0--0--
A|--7--9---12--9--7--3--5--0--
E|--0--0---10--7--5--0--3--2--

http://www.guitartabcreator.com
Guitar Tab Creator is intended to store guitar tab created through the tool. It currently does not support in-line text editing. Any text you place in here will be lost. If you need to comment on your tab, please use the "Tab Notes" section located below.