shoegaze-y (aug '17)

Chords

01234567891011121314151617181920212223
E
B
G
D
A
E
B
0 1 2 3 4 5 6 7 8 9 10 11 12 13 14 15 16 17 18 19 20 21 22 23
(/) Slide Up  (\) Slide Down  (h) Hammer On  (p) Pull Off  (b) Bend (r) Release (v) Vibrato

Capo Fret 4

Stave 1:

E |--------------------------
B |--------------------------
Gb|--0-----0--0-----0-----0--
Eb|--3-----3--3-----5-----3--
B |--2-----2--2-----4-----4--
E |--2-----4--0-----4-----2--

Stave 2:

E |--------------------------
B |--------------------------
Gb|--0-----0--0-----0-----0--
Eb|--3-----3--5-----1-----1--
B |--2-----2--4-----0-----0--
E |--2-----2--4-----0-----0--

							http://www.guitartabcreator.com
Tab Notes

whammy bar on stave 2

Instruments
{"title":"","strings":[[[".","_",".",".","_",".","_","."],[".","_",".",".","_",".","_","."],[0,"_",0,0,"_",0,"_",0],[3,"_",3,3,"_",5,"_",3],[2,"_",2,2,"_",4,"_",4],[2,"_",4,0,"_",4,"_",2]],[[".","_",".",".","_",".","_","."],[".","_",".",".","_",".","_","."],[0,"_",0,0,"_",0,"_",0],[3,"_",3,5,"_",1,"_",1],[2,"_",2,4,"_",0,"_",0],[2,"_",2,4,"_",0,"_",0]]],"numberofstrings":6,"notes":["E","B","FsGb","DsEb","B","E","B"],"capo":"4","stringnotes":["E4","B3","Gb3","Eb3","B2","E2"],"comments":["Stave 1:","Stave 2:"],"timing":[["W",null,"W","W","W","W",null,"W"],["W",null,"W","W",null,"W",null,"W"]],"timingvisible":false,"tabcounter":7,"stave":1,"totalstaves":2,"instrument":"6guitar","selectedtuning":"6_standard","version":"13"}

Member for

4 years 9 months
Submitted by jonathanbonn on Sun, 2017-08-13 13:45