september '18

Chords

01234567891011121314151617181920212223
E
B
G
D
A
E
B
0 1 2 3 4 5 6 7 8 9 10 11 12 13 14 15 16 17 18 19 20 21 22 23
(/) Slide Up  (\) Slide Down  (h) Hammer On  (p) Pull Off  (b) Bend (r) Release (v) Vibrato

Capo Fret 2

Stave 1:

D|-0-7p0-----------------------
B|-0-----7p0-----------7/8\7---
D|-0---------7p0-------------0-
D|-0-------------0-5/7---------
G|-----------------------------
E|-----------------------------

Stave 2:

D|-------------------------
B|-------------------------
D|-0-0-0-0-0-0-0-0-0-0-0-0-
D|-4-4-5-2-2-2-7-7-7-7-7-7-
G|-4-4-4-2-2-2-7-7-7-x-x-x-
E|-------------------5-5-5-

Stave 3:

D|---------0-----------0---------------0-----------0-------
B|-------0---0-------0---0-----------0---0-------0---0-----
D|-----4-----------4-------4-------4-----------4-------4---
D|---5-----------5-----------5---5-----------5-----------5-
G|-0-------------------------------------------------------
E|-------------5---------------3-----------0---------------

							http://www.guitartabcreator.com
Instruments
{"title":"september '18","strings":[[[0,7,"p",0,".",".",".",".",".",".",".",".",".",".",".",".",".",".",".","."],[0,".",".",".",7,"p",0,".",".",".",".",".",".",".",7,"/",8,"\\",7,"."],[0,".",".",".",".",".",".",7,"p",0,".",".",".",".",".",".",".",".",".",0],[0,".",".",".",".",".",".",".",".",".",0,5,"/",7,".",".",".",".",".","."],[".",".",".",".",".",".",".",".",".",".",".",".",".",".",".",".",".",".",".","."],[".",".",".",".",".",".",".",".",".",".",".",".",".",".",".",".",".",".",".","."]],[[".",".",".",".",".",".",".",".",".",".",".","."],[".",".",".",".",".",".",".",".",".",".",".","."],[0,0,0,0,0,0,0,0,0,0,0,0],[4,4,5,2,2,2,7,7,7,7,7,7],[4,4,4,2,2,2,7,7,7,"x5","x7","x7"],[".",".",".",".",".",".",".",".",".",5,5,5]],[[".",".",".",".",0,".",".",".",".",".",0,".",".",".",".",".",".",".",0,".",".",".",".",".",0,".",".","."],[".",".",".",0,".",0,".",".",".",0,".",0,".",".",".",".",".",0,".",0,".",".",".",0,".",0,".","."],[".",".",4,".",".",".",".",".",4,".",".",".",4,".",".",".",4,".",".",".",".",".",4,".",".",".",4,"."],[".",5,".",".",".",".",".",5,".",".",".",".",".",5,".",5,".",".",".",".",".",5,".",".",".",".",".",5],[0,".",".",".",".",".",".",".",".",".",".",".",".",".",".",".",".",".",".",".",".",".",".",".",".",".",".","."],[".",".",".",".",".",".",5,".",".",".",".",".",".",".",3,".",".",".",".",".",0,".",".",".",".",".",".","."]]],"numberofstrings":6,"notes":["D","B","D","D","G","E","B"],"capo":"2","stringnotes":["D4","B3","D4","D3","G2","E2"],"comments":["Stave 1:","Stave 2:","Stave 3:"],"timing":[["W","W",null,"W","W",null,"W","W",null,"W","W","W",null,"W","W",null,"W",null,"W","W"],["W","W","W","W","W","W","W","W","W","W","W","W"],["W","W","W","W","W","W","W","W","W","W","W","W","W","W","W","W","W","W","W","W","W","W","W","W","W","W","W","W"]],"timingvisible":false,"tabcounter":28,"stave":2,"totalstaves":3,"instrument":"6guitar","selectedtuning":"6_standard","version":"13"}

Member for

4 years 9 months
Submitted by jonathanbonn on Mon, 2018-09-10 13:34