ny låt rhythm

Chords

01234567891011121314151617181920212223
E
B
G
D
A
E
B
0 1 2 3 4 5 6 7 8 9 10 11 12 13 14 15 16 17 18 19 20 21 22 23
(/) Slide Up  (\) Slide Down  (h) Hammer On  (p) Pull Off  (b) Bend (r) Release (v) Vibrato

Capo Fret 2

Stave 1:

E|--------3p0------------------------------|--------------|--------------|-------
B|--------------1p0------------------------|--------------|--------------|-7-----
G|-0----------------0-----0----------------|--------------|--------0-0---|---7---
D|-2----2-----2-------2-----2-0----0-0-0-2-|-0----0-0-0-0-|-0----0-4-4-2-|-----7-
A|-3----3-----3---------3-----x----x-x-x-0-|-x----x-x-x-x-|-x----x-5-5-0-|-------
E|----------------------------3----3-5-5-0-|-2----2-5-5-3-|-3----3-----0-|-------

Stave 2:

E|-----------------|---------------------|-----------------|---------------|-
B|-----------------|---------------------|-----------------|---------------|-
G|-0-0----0-0----0-|-0-0----0--0-----0-0-|-0-0----0-0----0-|-0-0----0-0--0-|-
D|-9-9----7-7----5-|-9-9----12-12----7-5-|-9-9----7-7----5-|-9-9----7-12-5-|-
A|-7-7----5-5----3-|-7-7----10-10----5-3-|-7-7----5-5----3-|-7-7----5/10\3-|-
E|-----------------|---------------------|-----------------|---------------|-

							http://www.guitartabcreator.com
Instruments
{"title":"ny låt rhythm","strings":[[[".","_",".",3,"p",0,".",".",".",".",".",".",".",".",".",".","_",".",".",".",".","|",".","_",".",".",".",".","|",".","_",".",".",".",".","|",".",".","."],[".","_",".",".",".",".",".",1,"p",0,".",".",".",".",".",".","_",".",".",".",".","|",".","_",".",".",".",".","|",".","_",".",".",".",".","|",7,".","."],[0,"_",".",".",".",".",".",".",".",".",0,".",".",0,".",".","_",".",".",".",".","|",".","_",".",".",".",".","|",".","_",".",0,0,".","|",".",7,"."],[2,"_",2,".",".",".",2,".",".",".",".",2,".",".",2,0,"_",0,0,0,2,"|",0,"_",0,0,0,0,"|",0,"_",0,4,4,2,"|",".",".",7],[3,"_",3,".",".",".",3,".",".",".",".",".",3,".",".","x8","_","x18","x21","x11",0,"|","x21","_","x19","x19","x23","x20","|","x21","_","x23",5,5,0,"|",".",".","."],[".","_",".",".",".",".",".",".",".",".",".",".",".",".",".",3,"_",3,5,5,0,"|",2,"_",2,5,5,3,"|",3,"_",3,".",".",0,"|",".",".","."]],[[".",".","_",".",".","_",".","|",".",".","_",".",".","_",".",".","|",".",".","_",".",".","_",".","|",".",".","_",".",".",".",".",".","|"],[".",".","_",".",".","_",".","|",".",".","_",".",".","_",".",".","|",".",".","_",".",".","_",".","|",".",".","_",".",".",".",".",".","|"],[0,0,"_",0,0,"_",0,"|",0,0,"_",0,0,"_",0,0,"|",0,0,"_",0,0,"_",0,"|",0,0,"_",0,".",0,".",0,"|"],[9,9,"_",7,7,"_",5,"|",9,9,"_",12,12,"_",7,5,"|",9,9,"_",7,7,"_",5,"|",9,9,"_",7,".",12,".",5,"|"],[7,7,"_",5,5,"_",3,"|",7,7,"_",10,10,"_",5,3,"|",7,7,"_",5,5,"_",3,"|",7,7,"_",5,"/",10,"\\",3,"|"],[".",".","_",".",".","_",".","|",".",".","_",".",".","_",".",".","|",".",".","_",".",".","_",".","|",".",".","_",".",".",".",".",".","|"]]],"numberofstrings":6,"notes":["E","B","G","D","A","E","B"],"capo":"2","stringnotes":["E4","B3","G3","D3","A2","E2"],"comments":["Stave 1:","Stave 2:"],"timing":[["W","W","W","W",null,"W","W","W",null,"W","W","W","W","W","W","W",null,"W","W","W","W","W","W",null,"W","W","W","W",null,"W",null,"W","W","W","W",null,"W","W","W"],["W","W","W","W","W","W","W",null,"W","W",null,"W","W",null,"W","W",null,"W","W",null,"W","W",null,"W",null,"W","W",null,"W",null,"W",null,"W"]],"timingvisible":false,"tabcounter":34,"stave":1,"totalstaves":2,"instrument":"6guitar","selectedtuning":"6_standard","version":"13"}

Member for

4 years 9 months
Submitted by jonathanbonn on Wed, 2017-05-17 10:37