Ny låt

Chords

01234567891011121314151617181920212223
E
B
G
D
A
E
B
0 1 2 3 4 5 6 7 8 9 10 11 12 13 14 15 16 17 18 19 20 21 22 23
(/) Slide Up  (\) Slide Down  (h) Hammer On  (p) Pull Off  (b) Bend (r) Release (v) Vibrato

Capo Fret 2

Stave 1:

E|-------------------------------------------------------
B|--9------------9-----------9-----10--9-----9-----------
G|-----9------------9-----------9---------9-----9--------
D|--------9--11--------7--9------------------------7--9--
A|-------------------------------------------------------
E|-------------------------------------------------------

Stave 2:

E|---------------------------------------------------------
B|--9------------9-----------9-----10--9-----12--10--9-----
G|-----9------------9-----------9---------9-------------9--
D|--------9--11--------7--9--------------------------------
A|---------------------------------------------------------
E|---------------------------------------------------------

Stave 3:

E|---------------------------------------12--12--12--12--12--10--9------
B|--10--10--10--10/12--12--12/14--10--------------------------------10--
G|----------------------------------------------------------------------
D|----------------------------------------------------------------------
A|----------------------------------------------------------------------
E|----------------------------------------------------------------------

Stave 4:

E|---------------------12--10--9------------9------10------12--10--9------
B|--10--10--10/12--12-------------10/12--------10------10-------------10--
G|------------------------------------------------------------------------
D|------------------------------------------------------------------------
A|------------------------------------------------------------------------
E|------------------------------------------------------------------------

Stave 5:

E|---------------------------------
B|--12--12--12--12/14--14--14--15--
G|---------------------------------
D|---------------------------------
A|---------------------------------
E|---------------------------------

Stave 6:

E|-----------------------------------
B|--14-----------------14------9-----
G|------14------14---------14-----9--
D|----------14-----------------------
A|-----------------------------------
E|-----------------------------------

							http://www.guitartabcreator.com
Instruments
{"title":"Ny låt","strings":[[[".",".",".",".",".",".",".",".",".",".",".",".",".",".",".",".","."],[9,".",".",".",9,".",".",".",9,".",10,9,".",9,".",".","."],[".",9,".",".",".",9,".",".",".",9,".",".",9,".",9,".","."],[".",".",9,11,".",".",7,9,".",".",".",".",".",".",".",7,9],[".",".",".",".",".",".",".",".",".",".",".",".",".",".",".",".","."],[".",".",".",".",".",".",".",".",".",".",".",".",".",".",".",".","."]],[[".",".",".",".",".",".",".",".",".",".",".",".",".",".",".",".","."],[9,".",".",".",9,".",".",".",9,".",10,9,".",12,10,9,"."],[".",9,".",".",".",9,".",".",".",9,".",".",9,".",".",".",9],[".",".",9,11,".",".",7,9,".",".",".",".",".",".",".",".","."],[".",".",".",".",".",".",".",".",".",".",".",".",".",".",".",".","."],[".",".",".",".",".",".",".",".",".",".",".",".",".",".",".",".","."]],[[".",".",".",".",".",".",".",".",".",".",".","_",12,12,12,12,12,10,9,"."],[10,10,10,10,"/",12,12,12,"/",14,10,"_",".",".",".",".",".",".",".",10],[".",".",".",".",".",".",".",".",".",".",".","_",".",".",".",".",".",".",".","."],[".",".",".",".",".",".",".",".",".",".",".","_",".",".",".",".",".",".",".","."],[".",".",".",".",".",".",".",".",".",".",".","_",".",".",".",".",".",".",".","."],[".",".",".",".",".",".",".",".",".",".",".","_",".",".",".",".",".",".",".","."]],[[".",".",".",".",".",".",12,10,9,".",".",".","_",9,".",10,".",12,10,9,"."],[10,10,10,"/",12,12,".",".",".",10,"/",12,"_",".",10,".",10,".",".",".",10],[".",".",".",".",".",".",".",".",".",".",".",".","_",".",".",".",".",".",".",".","."],[".",".",".",".",".",".",".",".",".",".",".",".","_",".",".",".",".",".",".",".","."],[".",".",".",".",".",".",".",".",".",".",".",".","_",".",".",".",".",".",".",".","."],[".",".",".",".",".",".",".",".",".",".",".",".","_",".",".",".",".",".",".",".","."]],[[".",".",".",".",".",".",".",".","."],[12,12,12,12,"/",14,14,14,15],[".",".",".",".",".",".",".",".","."],[".",".",".",".",".",".",".",".","."],[".",".",".",".",".",".",".",".","."],[".",".",".",".",".",".",".",".","."]],[[".",".",".",".","_",".",".",".","."],[14,".",".",".","_",14,".",9,"."],[".",14,".",14,"_",".",14,".",9],[".",".",14,".","_",".",".",".","."],[".",".",".",".","_",".",".",".","."],[".",".",".",".","_",".",".",".","."]]],"numberofstrings":6,"notes":["E","B","G","D","A","E","B"],"capo":"2","stringnotes":["E4","B3","G3","D3","A2","E2"],"comments":["Stave 1:","Stave 2:","Stave 3:","Stave 4:","Stave 5:","Stave 6:"],"timing":[["W","W","W","W","W","W","W","W","W","W","W","W","W","W","W","W","W"],["W","W","W","W","W","W","W","W","W","W","W","W","W","W","W","W","W"],["W","W","W","W","W","W","W","W","W","W","W","W","W","W","W","W","W","W","W","W"],["W","W","W",null,"W","W","W","W","W","W","W","W","W","W","W","W","W","W","W","W","W","W"],["W","W","W","W",null,"W","W","W","W","W"],["W","W","W","W",null,"W","W","W","W"]],"timingvisible":false,"tabcounter":21,"stave":3,"totalstaves":6,"instrument":"6guitar","selectedtuning":"6_standard","version":"13"}

Member for

4 years 9 months
Submitted by jonathanbonn on Fri, 2017-05-12 15:04