Sound will begin in 5 seconds

new song who dis

Chords
01234567891011121314151617181920212223
E
B
G
D
A
E
B
0 1 2 3 4 5 6 7 8 9 10 11 12 13 14 15 16 17 18 19 20 21 22 23
(/) Slide Up  (\) Slide Down  (h) Hammer On  (p) Pull Off  (b) Bend (r) Release (v) Vibrato

Stave 1:

E|-------------------------------------------------
B|---7---8\7-----7-----7-----7---8\7-----7-----7---
G|-7---7-----7-7---7-----7-----7-----7-----7-----7-
D|-x-----------x-----0-----0-----------0-----0-----
A|-5-----------7-----x-----x-----------x-----x-----
E|-------------------7-----5-----------7-----8-----

Stave 2:

E|------------------
B|------------------
G|-0---------7----7-
D|-5----7----5----0-
A|-5----5----7----x-
E|-3----7---------8-

Stave 3:

E|---------------------------------
B|---------------------------------
G|-0----0----0----0----0----0----0-
D|-0----5----7----0----0----0----0-
A|-2----3----5----7----3----7----5-
E|-3----5----7----7----3----7----5-

http://www.guitartabcreator.com
Guitar Tab Creator is intended to store guitar tab created through the tool. It currently does not support in-line text editing. Any text you place in here will be lost. If you need to comment on your tab, please use the "Tab Notes" section located below.