letter to my son

Chords

01234567891011121314151617181920212223
E
B
G
D
A
E
B
0 1 2 3 4 5 6 7 8 9 10 11 12 13 14 15 16 17 18 19 20 21 22 23
(/) Slide Up  (\) Slide Down  (h) Hammer On  (p) Pull Off  (b) Bend (r) Release (v) Vibrato

Stave 1:

E|----------10-9-------------------10-9----
B|-------10------10----10-------10------10-
G|-6h7p6------------------6h7p6------------
D|-----------------------------------------
A|-----------------------------------------
E|-----------------------------------------

Stave 2:

E|-----------------------------------------------
B|-12-12-12-12-12-10-10-10-5-5h7-----------------
G|-------------------------------7-7-7-4-6-------
D|-----------------------------------------7-7-7-
A|-----------------------------------------------
E|-----------------------------------------------

							http://www.guitartabcreator.com
Instruments
{"title":"","strings":[[[".",".",".",".",".",".",10,9,".","_",".",".",".",".",".",".",".",10,9,"."],[".",".",".",".",".",10,".",".",10,"_",10,".",".",".",".",".",10,".",".",10],[6,"h",7,"p",6,".",".",".",".","_",".",6,"h",7,"p",6,".",".",".","."],[".",".",".",".",".",".",".",".",".","_",".",".",".",".",".",".",".",".",".","."],[".",".",".",".",".",".",".",".",".","_",".",".",".",".",".",".",".",".",".","."],[".",".",".",".",".",".",".",".",".","_",".",".",".",".",".",".",".",".",".","."]],[[".",".",".",".",".",".",".",".",".",".",".",".",".",".",".",".",".",".",".","."],[12,12,12,12,12,10,10,10,5,5,"h",7,".",".",".",".",".",".",".","."],[".",".",".",".",".",".",".",".",".",".",".",".",7,7,7,4,6,".",".","."],[".",".",".",".",".",".",".",".",".",".",".",".",".",".",".",".",".",7,7,7],[".",".",".",".",".",".",".",".",".",".",".",".",".",".",".",".",".",".",".","."],[".",".",".",".",".",".",".",".",".",".",".",".",".",".",".",".",".",".",".","."]]],"numberofstrings":6,"notes":["E","B","G","D","A","E","B"],"capo":0,"stringnotes":["E4","B3","G3","D3","A2","E2"],"comments":["Stave 1:","Stave 2:"],"timing":[["W",null,"W",null,"W","W","W","W","W","W","W","W","W","W","W","W","W","W","W","W",null,"W","W"],["W","W","W","W","W","W","W","W","W","W",null,"W","W","W","W","W","W","W","W","W"]],"timingvisible":false,"tabcounter":20,"stave":1,"totalstaves":2,"instrument":"6guitar","selectedtuning":"6_standard","version":"13"}

Member for

4 years 9 months
Submitted by jonathanbonn on Sun, 2017-05-21 04:14