LANY - pink skies

Chords

01234567891011121314151617181920212223
E
B
G
D
A
E
B
0 1 2 3 4 5 6 7 8 9 10 11 12 13 14 15 16 17 18 19 20 21 22 23
(/) Slide Up  (\) Slide Down  (h) Hammer On  (p) Pull Off  (b) Bend (r) Release (v) Vibrato

Stave 1:

E|----------------------------------------------------------------------------------------
B|-------13-------------13-10----------13-------------13-------------13-------------13-10-
G|----10----10-------10-------------10----10-------10----12-------10----10-------10-------
D|-10-------------10-------------10-------------10-------------10-------------10----------
A|----------------------------------------------------------------------------------------
E|----------------------------------------------------------------------------------------

Stave 2:

E|-------------
B|-------------
G|-10----12-14-
D|-------------
A|-------------
E|-------------

Stave 3:

E|-------------------------------------------------------------------------------------------------
B|-------------------------------------------------------------------------------------------------
G|-------10-12-14-10----------------10-12-14-10-------------10-12-14-10----------------10-12-14-10-
D|-10-12-------------12-10----10-12-------------12----10-12-------------12-10----10-12-------------
A|-------------------------------------------------------------------------------------------------
E|-------------------------------------------------------------------------------------------------

							http://www.guitartabcreator.com
Instruments
{"title":"","strings":[[[".",".",".",".","_",".",".",".",".","_",".",".",".",".","_",".",".",".",".","_",".",".",".",".","_",".",".",".","."],[".",".",13,".","_",".",".",13,10,"_",".",".",13,".","_",".",".",13,".","_",".",".",13,".","_",".",".",13,10],[".",10,".",10,"_",".",10,".",".","_",".",10,".",10,"_",".",10,".",12,"_",".",10,".",10,"_",".",10,".","."],[10,".",".",".","_",10,".",".",".","_",10,".",".",".","_",10,".",".",".","_",10,".",".",".","_",10,".",".","."],[".",".",".",".","_",".",".",".",".","_",".",".",".",".","_",".",".",".",".","_",".",".",".",".","_",".",".",".","."],[".",".",".",".","_",".",".",".",".","_",".",".",".",".","_",".",".",".",".","_",".",".",".",".","_",".",".",".","."]],[[".","_",".","."],[".","_",".","."],[10,"_",12,14],[".","_",".","."],[".","_",".","."],[".","_",".","."]],[[".",".",".",".",".",".",".",".","_",".",".",".",".",".",".",".","_",".",".",".",".",".",".",".",".","_",".",".",".",".",".","."],[".",".",".",".",".",".",".",".","_",".",".",".",".",".",".",".","_",".",".",".",".",".",".",".",".","_",".",".",".",".",".","."],[".",".",10,12,14,10,".",".","_",".",".",10,12,14,10,".","_",".",".",10,12,14,10,".",".","_",".",".",10,12,14,10],[10,12,".",".",".",".",12,10,"_",10,12,".",".",".",".",12,"_",10,12,".",".",".",".",12,10,"_",10,12,".",".",".","."],[".",".",".",".",".",".",".",".","_",".",".",".",".",".",".",".","_",".",".",".",".",".",".",".",".","_",".",".",".",".",".","."],[".",".",".",".",".",".",".",".","_",".",".",".",".",".",".",".","_",".",".",".",".",".",".",".",".","_",".",".",".",".",".","."]]],"numberofstrings":6,"notes":["E","B","G","D","A","E","B"],"capo":0,"stringnotes":["E4","B3","G3","D3","A2","E2"],"comments":["Stave 1:","Stave 2:","Stave 3:"],"timing":[["W","W","W","W",null,"W","W","W","W",null,"W","W","W","W",null,"W","W","W","W",null,"W","W","W","W",null,"W","W","W","W"],["W",null,"W","W"],["W","W","W","W","W","W","W","W",null,"W","W","W","W","W","W","W",null,"W","W","W","W","W","W","W","W",null,"W","W","W","W","W","W"]],"timingvisible":false,"tabcounter":32,"stave":2,"totalstaves":3,"instrument":"6guitar","selectedtuning":"6_standard","version":"13"}

Member for

4 years 9 months
Submitted by jonathanbonn on Thu, 2017-03-30 11:48