Sound will begin in 5 seconds

Joywave - Now

01234567891011121314151617181920212223
E
B
G
D
A
E
B
0 1 2 3 4 5 6 7 8 9 10 11 12 13 14 15 16 17 18 19 20 21 22 23
Song Science #1: How Pros Use 6 Chords to Write Hit Songs
(/) Slide Up  (\) Slide Down  (h) Hammer On  (p) Pull Off  (b) Bend (r) Release (v) Vibrato

Stave 1:

E|---------------------------------------------------------------------------------------
B|---------------------------------------------------------------------------------------
G|-8-8-8-8-8-8-8-8b8b8b8-8-8-8-8-8-8-8-6-6-6-6-8-8-8-8-8-8-8-8b8b8b8-8-8-8-8-8-8-5-6-5-3-
D|---------------------------------------------------------------------------------------
A|---------------------------------------------------------------------------------------
E|---------------------------------------------------------------------------------------

Stave 2:

E|--------------------------------
B|--------------------------------
G|-8-8-8-8-8-8-8-6-8-10-6-3-1-3-8b
D|--------------------------------
A|--------------------------------
E|--------------------------------

Stave 3:

E|---------------------------------
B|-4-7-6-4-2-4-6-1-4-7-6-4-2-4-6-2-
G|---------------------------------
D|---------------------------------
A|---------------------------------
E|---------------------------------

Stave 4:

E|---------------------------------
B|---------------------------------
G|-6/18\6/18\6/18\6/18\6/18\6/18\6-
D|---------------------------------
A|---------------------------------
E|---------------------------------

Stave 5:

E|-----------------------------------------------------------------------
B|-----------------------------------------------------------------------
G|-6-6-6-6-6-6-6-6-6-6-6-6-6-6-5b5-3-1-3-1-3-6---11-11-10-8-11-10b10-8-6\
D|---------------------------------------------4-------------------------
A|-----------------------------------------------------------------------
E|-----------------------------------------------------------------------

http://www.guitartabcreator.com
Guitar Tab Creator is intended to store guitar tab created through the tool. It currently does not support in-line text editing. Any text you place in here will be lost. If you need to comment on your tab, please use the "Tab Notes" section located below.