the hotelier – goodness pt. 2 (solo)

Chords

01234567891011121314151617181920212223
E
B
G
D
A
E
B
0 1 2 3 4 5 6 7 8 9 10 11 12 13 14 15 16 17 18 19 20 21 22 23
(/) Slide Up  (\) Slide Down  (h) Hammer On  (p) Pull Off  (b) Bend (r) Release (v) Vibrato

Stave 1:

E|------------------------------------------------------
B|------------------------------------------------------
G|-9-7-9-9-9-9-9-7-9/11-11-11-11-11-9-7-4-2-2-2-2-2-2-2-
D|------------------------------------------------------
A|------------------------------------------------------
E|------------------------------------------------------

Stave 2:

E|------------------------------------------------------
B|------------------------------------------------------
G|-9-7-9-9-9-9-9-7-9/11-11-11-11-11-9-7-4-2-4-2-4-2-7-6-
D|------------------------------------------------------
A|------------------------------------------------------
E|------------------------------------------------------

Stave 3:

E|----------------------------14----14-------14----14-
B|-----3---3-------3---3------------------------------
G|-6-6---6---6-7-7---7---7-12----12----12-12----12----
D|----------------------------------------------------
A|----------------------------------------------------
E|----------------------------------------------------

Stave 4:

E|-----------------------------
B|-----3---3-----3---3---------
G|-6-6---6---7-7---7---7-6-4-2-
D|-----------------------------
A|-----------------------------
E|-----------------------------

							http://www.guitartabcreator.com
Tab Notes

tuning: half step down

Instruments
{"title":"the hotelier – goodness pt. 2 (solo)","strings":[[[".",".",".",".",".",".",".",".",".",".",".",".",".",".",".",".",".",".",".",".",".",".",".",".","."],[".",".",".",".",".",".",".",".",".",".",".",".",".",".",".",".",".",".",".",".",".",".",".",".","."],[9,7,9,9,9,9,9,7,9,"/",11,11,11,11,11,9,7,4,2,2,2,2,2,2,2],[".",".",".",".",".",".",".",".",".",".",".",".",".",".",".",".",".",".",".",".",".",".",".",".","."],[".",".",".",".",".",".",".",".",".",".",".",".",".",".",".",".",".",".",".",".",".",".",".",".","."],[".",".",".",".",".",".",".",".",".",".",".",".",".",".",".",".",".",".",".",".",".",".",".",".","."]],[[".",".",".",".",".",".",".",".",".",".",".",".",".",".",".",".",".",".",".",".",".",".",".",".","."],[".",".",".",".",".",".",".",".",".",".",".",".",".",".",".",".",".",".",".",".",".",".",".",".","."],[9,7,9,9,9,9,9,7,9,"/",11,11,11,11,11,9,7,4,2,4,2,4,2,7,6],[".",".",".",".",".",".",".",".",".",".",".",".",".",".",".",".",".",".",".",".",".",".",".",".","."],[".",".",".",".",".",".",".",".",".",".",".",".",".",".",".",".",".",".",".",".",".",".",".",".","."],[".",".",".",".",".",".",".",".",".",".",".",".",".",".",".",".",".",".",".",".",".",".",".",".","."]],[[".",".",".",".",".",".",".",".",".",".",".",".",".",14,".",14,".",".",14,".",14],[".",".",3,".",3,".",".",".",3,".",3,".",".",".",".",".",".",".",".",".","."],[6,6,".",6,".",6,7,7,".",7,".",7,12,".",12,".",12,12,".",12,"."],[".",".",".",".",".",".",".",".",".",".",".",".",".",".",".",".",".",".",".",".","."],[".",".",".",".",".",".",".",".",".",".",".",".",".",".",".",".",".",".",".",".","."],[".",".",".",".",".",".",".",".",".",".",".",".",".",".",".",".",".",".",".",".","."]],[[".",".",".",".",".",".",".",".",".",".",".",".",".","."],[".",".",3,".",3,".",".",3,".",3,".",".",".","."],[6,6,".",6,".",7,7,".",7,".",7,6,4,2],[".",".",".",".",".",".",".",".",".",".",".",".",".","."],[".",".",".",".",".",".",".",".",".",".",".",".",".","."],[".",".",".",".",".",".",".",".",".",".",".",".",".","."]]],"numberofstrings":6,"notes":["E","B","G","D","A","E","B"],"capo":0,"stringnotes":["E4","B3","G3","D3","A2","E2"],"comments":["Stave 1:","Stave 2:","Stave 3:","Stave 4:"],"timing":[["W","W","W","W","W","W","W","W","W","W","W","W","W","W","W","W","W","W","W","W","W","W","W","W","W"],["W","W","W","W","W","W","W","W","W",null,"W","W","W","W","W","W","W","W","W","W","W","W","W","W","W"],["W","W","W","W","W","W","W","W","W","W","W","W","W","W","W","W","W","W","W","W","W"],["W","W","W","W","W","W","W","W","W","W","W","W","W","W"]],"timingvisible":false,"tabcounter":14,"stave":3,"totalstaves":4,"instrument":"6guitar","selectedtuning":"6_standard","version":"13"}

Member for

4 years 9 months
Submitted by jonathanbonn on Sun, 2018-11-04 04:46