hibernation solo (den riktiga)

Chords

01234567891011121314151617181920212223
E
B
G
D
A
E
B
0 1 2 3 4 5 6 7 8 9 10 11 12 13 14 15 16 17 18 19 20 21 22 23
(/) Slide Up  (\) Slide Down  (h) Hammer On  (p) Pull Off  (b) Bend (r) Release (v) Vibrato

Capo Fret 3

Stave 1:

E|-------------------------------------------------------------------------------------------------------
B|-------10h11-10----10----------------------------------------------------------------------------------
G|-10-------------10----10-8-7-8----8-7h8-7---7----------------------------------------------------------
D|------------------------------------------8---7-7-8----8-8-7h8-7-----7h8-7-----7h8-7-------------------
A|-----------------------------------------------------------------8-8-------8-8-------8-8-8-8-8-6-5-6-5-
E|-------------------------------------------------------------------------------------------------------

Stave 2:

E|--------------------------------------------------------------------------------------------
B|-10h11-10----10-----------------------------------------------------------------------------
G|----------10----8-7-8----8-7h8-7---7-----7------7h8-7-----7h8-7-----7h8-7-------------------
D|---------------------------------8---8-7---8----------8-8-------8-8-------8-8-8-8-8-6-5-6-5-
A|--------------------------------------------------------------------------------------------
E|--------------------------------------------------------------------------------------------

							http://www.guitartabcreator.com
Instruments
{"title":"","strings":[[[".","_",".",".",".",".",".",".",".",".",".",".","_",".",".",".",".",".",".",".",".",".",".","_",".",".",".",".",".",".",".",".",".",".",".",".",".",".",".",".",".",".",".",".",".",".",".",".",".",".","."],[".","_",10,"h",11,10,".",10,".",".",".",".","_",".",".",".",".",".",".",".",".",".",".","_",".",".",".",".",".",".",".",".",".",".",".",".",".",".",".",".",".",".",".",".",".",".",".",".",".",".","."],[10,"_",".",".",".",".",10,".",10,8,7,8,"_",8,7,"h",8,7,".",7,".",".",".","_",".",".",".",".",".",".",".",".",".",".",".",".",".",".",".",".",".",".",".",".",".",".",".",".",".",".","."],[".","_",".",".",".",".",".",".",".",".",".",".","_",".",".",".",".",".",8,".",7,7,8,"_",8,8,7,"h",8,7,".",".",7,"h",8,7,".",".",7,"h",8,7,".",".",".",".",".",".",".",".","."],[".","_",".",".",".",".",".",".",".",".",".",".","_",".",".",".",".",".",".",".",".",".",".","_",".",".",".",".",".",".",8,8,".",".",".",".",8,8,".",".",".",".",8,8,8,8,8,6,5,6,5],[".","_",".",".",".",".",".",".",".",".",".",".","_",".",".",".",".",".",".",".",".",".",".","_",".",".",".",".",".",".",".",".",".",".",".",".",".",".",".",".",".",".",".",".",".",".",".",".",".",".","."]],[[".",".",".",".",".",".",".",".",".","_",".",".",".",".",".",".",".",".",".",".",".","_",".",".",".",".",".",".",".",".",".",".",".",".",".",".",".",".",".",".",".",".",".",".",".",".","."],[10,"h",11,10,".",10,".",".",".","_",".",".",".",".",".",".",".",".",".",".",".","_",".",".",".",".",".",".",".",".",".",".",".",".",".",".",".",".",".",".",".",".",".",".",".",".","."],[".",".",".",".",10,".",8,7,8,"_",8,7,"h",8,7,".",7,".",".",7,".","_",7,"h",8,7,".",".",7,"h",8,7,".",".",7,"h",8,7,".",".",".",".",".",".",".",".","."],[".",".",".",".",".",".",".",".",".","_",".",".",".",".",".",8,".",8,7,".",8,"_",".",".",".",".",8,8,".",".",".",".",8,8,".",".",".",".",8,8,8,8,8,6,5,6,5],[".",".",".",".",".",".",".",".",".","_",".",".",".",".",".",".",".",".",".",".",".","_",".",".",".",".",".",".",".",".",".",".",".",".",".",".",".",".",".",".",".",".",".",".",".",".","."],[".",".",".",".",".",".",".",".",".","_",".",".",".",".",".",".",".",".",".",".",".","_",".",".",".",".",".",".",".",".",".",".",".",".",".",".",".",".",".",".",".",".",".",".",".",".","."]]],"numberofstrings":6,"notes":["E","B","G","D","A","E","B"],"capo":"3","stringnotes":["E4","B3","G3","D3","A2","E2"],"comments":["Stave 1:","Stave 2:"],"timing":[["W",null,"W","W","W","W","W","W","W","W","W","W",null,"W","W",null,"W","W","W","W","W","W","W",null,"W","W","W",null,"W","W","W","W","W",null,"W","W","W","W","W",null,"W","W","W","W","W","W","W","W","W","W","W"],["W",null,"W","W","W","W","W","W","W",null,"W","W",null,"W","W","W","W","W","W","W","W",null,"W",null,"W","W","W","W","W",null,"W","W","W","W","W",null,"W","W","W","W","W","W","W","W","W","W","W"]],"timingvisible":false,"tabcounter":47,"stave":1,"totalstaves":2,"instrument":"6guitar","selectedtuning":"6_standard","version":"13"}

Member for

4 years 9 months
Submitted by jonathanbonn on Mon, 2017-12-04 09:37