go ahead, j

Chords

01234567891011121314151617181920212223
E
B
G
D
A
E
B
0 1 2 3 4 5 6 7 8 9 10 11 12 13 14 15 16 17 18 19 20 21 22 23
(/) Slide Up  (\) Slide Down  (h) Hammer On  (p) Pull Off  (b) Bend (r) Release (v) Vibrato

Stave 1:

G|----12-13-12----------12-13-12----------12-13-15----------------
D|-13----------13----13----------13----13----------13----13-11-10-
A|----------------------------------------------------------------
E|----------------------------------------------------------------

Stave 2:

G|----12-13-12----------12-13-12----------12-13-15-----------------------------
D|-13----------13----13----------13----13----------13----10-10-10-11----10-8-6-
A|-----------------------------------------------------------------------------
E|-----------------------------------------------------------------------------

Stave 3:

G|----12-13-12------------------
D|-13----------13----13-11-10-6-
A|------------------------------
E|------------------------------

							http://www.guitartabcreator.com
Instruments
{"title":"","strings":[[[".",12,13,12,".","_",".",12,13,12,".","_",".",12,13,15,".","_",".",".","."],[13,".",".",".",13,"_",13,".",".",".",13,"_",13,".",".",".",13,"_",13,11,10],[".",".",".",".",".","_",".",".",".",".",".","_",".",".",".",".",".","_",".",".","."],[".",".",".",".",".","_",".",".",".",".",".","_",".",".",".",".",".","_",".",".","."]],[[".",12,13,12,".","_",".",12,13,12,".","_",".",12,13,15,".","_",".",".",".",".","_",".",".","."],[13,".",".",".",13,"_",13,".",".",".",13,"_",13,".",".",".",13,"_",10,10,10,11,"_",10,8,6],[".",".",".",".",".","_",".",".",".",".",".","_",".",".",".",".",".","_",".",".",".",".","_",".",".","."],[".",".",".",".",".","_",".",".",".",".",".","_",".",".",".",".",".","_",".",".",".",".","_",".",".","."]],[[".",12,13,12,".","_",".",".",".","."],[13,".",".",".",13,"_",13,11,10,6],[".",".",".",".",".","_",".",".",".","."],[".",".",".",".",".","_",".",".",".","."]]],"numberofstrings":4,"notes":["G","D","A","E"],"capo":0,"stringnotes":["G2","D2","A1","E1"],"comments":["Stave 1:","Stave 2:","Stave 3:"],"timing":[["W","W","W","W","W","W","W","W","W","W","W","W","W","W","W","W","W","W","W","W","W","W"],["W","W","W","W","W","W","W","W","W","W","W",null,"W","W","W","W","W",null,"W","W","W","W","W","W","W","W"],["W","W","W","W","W",null,"W","W","W","W","W"]],"timingvisible":false,"tabcounter":10,"stave":2,"totalstaves":3,"instrument":"4bass","selectedtuning":"4bass_standard","version":"13"}

Member for

4 years 9 months
Submitted by jonathanbonn on Wed, 2017-06-07 08:04