första nya på ett tag

Chords

01234567891011121314151617181920212223
E
B
G
D
A
E
B
0 1 2 3 4 5 6 7 8 9 10 11 12 13 14 15 16 17 18 19 20 21 22 23
(/) Slide Up  (\) Slide Down  (h) Hammer On  (p) Pull Off  (b) Bend (r) Release (v) Vibrato

Capo Fret 3

Stave 1:

E|-------------------------------------------------
A|-0--0--0--0--0--0--0--0--0--0--0--0--0--0--0--0--
G|-0--0--0--0--0--0--0--0--0--0--0--0--0--0--0--0--
D|-12-12-12-12-12-12-12-12-12-12-12-12-12-12-12-12-
A|-10-10-10-10-10-10-10-10-9--9--9--9--9--9--9--9--
E|-------------------------------------------------

Stave 2:

E|-------------------------------------------------
A|-0--0--0--0--0--0--0--0--0--0--0--0--0--0--0--0--
G|-0--0--0--0--0--0--0--0--0--0--0--0--0--0--0--0--
D|-12-12-12-12-12-12-12-12-12-12-12-12-12-12-12-12-
A|-10-10-10-10-10-10-10-10-12-12-12-12-12-12-0--0--
E|-0--0--0--0--0--0--0--0--0--0--0--0--0--0--------

Stave 3:

E|------------------------------------------------------
A|-0--0--0--0--0--0--0--0--0--0--0--0-0-0-0-0-0-0-0-0-0-
G|-0--0--0--0--0--12-11-0--12-11-0--0-0-0-0-0-9-7-0-9-7-
D|-12-12-12-12-12-12-12-12-12-12-12-9-9-9-9-9-9-9-9-9-9-
A|-10-10-10-10-10-10-10-10-10-10-10-7-7-7-7-7-7-7-7-7-7-
E|------------------------------------------------------

Stave 4:

E|---------------------------------------------
A|-0-0-0-0-0-0-0-0-0-0-0-0-0-0-0-0-0-0-0-0-0-0-
G|-0-0-0-0-0-0-0-0-0-0-0-0-0-0-0-0-5-5-5-0-0-0-
D|-4-4-4-4-4-5-5-5-4-4-4-5-5-5-5-5-5-5-5-5-5-5-
A|-5-5-5-5-5-5-5-5-5-5-5-3-3-3-3-3-3-3-3-3-3-3-
E|-----------------------5-5-5-5-5-5-5-5-5-5-5-

Stave 5:

E|-------------------------------------------------------
A|-0--0--0--0--0--0--0--0--0--0--0--0--0--0--0--0--0--0--
G|-0--0--0--0--0--0--0--0--0--0--0--0--0--0--0--0--0--0--
D|-12-12-12-12-12-12-12-12-12-12-12-12-12-12-12-12-12-12-
A|-10-10-10-10-10-10-9--10-9--0--0--0--0--0--10-9--10-9--
E|-0--0--0--0--0--0--0--0--0--10-10-10-10-10-10-10-10-10-

Stave 6:

E|----------------------------------------------------
A|-0--0--0--0--0--0--0--0--0--0--0--0--0--0--0--0--0--
G|-0--0--0--0--0--0--0--0--0--0--0--0--0--0--0--0--0--
D|-12-12-12-12-12-12-12-12-12-12-12-12-12-12-12-12-12-
A|-x--x--x--x--x--10-9--10-9--x--x--x--x--x--x--x--x--
E|-7--7--7--7--7--7--7--7--7--9--9--9--9--9--9--9--9--

							http://www.guitartabcreator.com
Instruments
{"title":"första nya på ett tag","strings":[[[".",".",".",".",".",".",".",".",".",".",".",".",".",".",".","."],[0,0,0,0,0,0,0,0,0,0,0,0,0,0,0,0],[0,0,0,0,0,0,0,0,0,0,0,0,0,0,0,0],[12,12,12,12,12,12,12,12,12,12,12,12,12,12,12,12],[10,10,10,10,10,10,10,10,9,9,9,9,9,9,9,9],[".",".",".",".",".",".",".",".",".",".",".",".",".",".",".","."]],[[".",".",".",".",".",".",".",".",".",".",".",".",".",".",".","."],[0,0,0,0,0,0,0,0,0,0,0,0,0,0,0,0],[0,0,0,0,0,0,0,0,0,0,0,0,0,0,0,0],[12,12,12,12,12,12,12,12,12,12,12,12,12,12,12,12],[10,10,10,10,10,10,10,10,12,12,12,12,12,12,0,0],[0,0,0,0,0,0,0,0,0,0,0,0,0,0,".","."]],[[".",".",".",".",".",".",".",".",".",".",".",".",".",".",".",".",".",".",".",".","."],[0,0,0,0,0,0,0,0,0,0,0,0,0,0,0,0,0,0,0,0,0],[0,0,0,0,0,12,11,0,12,11,0,0,0,0,0,0,9,7,0,9,7],[12,12,12,12,12,12,12,12,12,12,12,9,9,9,9,9,9,9,9,9,9],[10,10,10,10,10,10,10,10,10,10,10,7,7,7,7,7,7,7,7,7,7],[".",".",".",".",".",".",".",".",".",".",".",".",".",".",".",".",".",".",".",".","."]],[[".",".",".",".",".",".",".",".",".",".",".",".",".",".",".",".",".",".",".",".",".","."],[0,0,0,0,0,0,0,0,0,0,0,0,0,0,0,0,0,0,0,0,0,0],[0,0,0,0,0,0,0,0,0,0,0,0,0,0,0,0,5,5,5,0,0,0],[4,4,4,4,4,5,5,5,4,4,4,5,5,5,5,5,5,5,5,5,5,5],[5,5,5,5,5,5,5,5,5,5,5,3,3,3,3,3,3,3,3,3,3,3],[".",".",".",".",".",".",".",".",".",".",".",5,5,5,5,5,5,5,5,5,5,5]],[[".",".",".",".",".",".",".",".",".",".",".",".",".",".",".",".",".","."],[0,0,0,0,0,0,0,0,0,0,0,0,0,0,0,0,0,0],[0,0,0,0,0,0,0,0,0,0,0,0,0,0,0,0,0,0],[12,12,12,12,12,12,12,12,12,12,12,12,12,12,12,12,12,12],[10,10,10,10,10,10,9,10,9,0,0,0,0,0,10,9,10,9],[0,0,0,0,0,0,0,0,0,10,10,10,10,10,10,10,10,10]],[[".",".",".",".",".",".",".",".",".",".",".",".",".",".",".",".","."],[0,0,0,0,0,0,0,0,0,0,0,0,0,0,0,0,0],[0,0,0,0,0,0,0,0,0,0,0,0,0,0,0,0,0],[12,12,12,12,12,12,12,12,12,12,12,12,12,12,12,12,12],["x7","x7","x10","x11","x7",10,9,10,9,"x16","x8","x18","x16","x18","x17","x18","x17"],[7,7,7,7,7,7,7,7,7,9,9,9,9,9,9,9,9]]],"numberofstrings":6,"notes":["E","A","G","D","A","E","B"],"capo":"3","stringnotes":["E4","A3","G3","D3","A2","E2"],"comments":["Stave 1:","Stave 2:","Stave 3:","Stave 4:","Stave 5:","Stave 6:"],"timing":[["W","W","W","W","W","W","W","W","W","W","W","W","W","W","W","W"],["W","W","W","W","W","W","W","W","W","W","W","W","W","W","W","W"],["W","W","W","W","W","W","W","W","W","W","W","W","W","W","W","W","W","W","W","W","W"],["W","W","W","W","W","W","W","W","W","W","W","W","W","W","W","W","W","W","W","W","W","W"],["W","W","W","W","W","W","W","W","W","W","W","W","W","W","W","W","W","W"],["W","W","W","W","W","W","W","W","W","W","W","W","W","W","W","W","W"]],"timingvisible":false,"tabcounter":16,"stave":5,"totalstaves":6,"instrument":"6guitar","selectedtuning":"6_standard","version":"13"}

Member for

4 years 9 months
Submitted by jonathanbonn on Sun, 2017-07-09 03:27