enkel låt

Chords

01234567891011121314151617181920212223
E
B
G
D
A
E
B
0 1 2 3 4 5 6 7 8 9 10 11 12 13 14 15 16 17 18 19 20 21 22 23
(/) Slide Up  (\) Slide Down  (h) Hammer On  (p) Pull Off  (b) Bend (r) Release (v) Vibrato

Capo Fret 4

Stave 1:

E|--------------------------------------------------------------------------
B|--------------0-----------------0-----------------0-----------------0-----
G|-----0-----------0-----0-----------0-----0-----------0-----0-----------0--
D|--2-----2--2--------2-----2--2--------4-----4--4--------4-----4--4--------
A|--3--------3--------3--------3--------5--------5--------5--------5--------
E|--3--------3--------3--------3--------5--------5--------5--------5--------

Stave 2:

E|--3-----5--7--8--
B|--3-----3--0--8--
G|-----------------
D|-----------------
A|-----------------
E|-----------------

Stave 3:

E|--------------
B|--------------
G|--0-----5--4--
D|--5-----5--5--
A|--------------
E|--------------

							http://www.guitartabcreator.com
Instruments
{"title":"enkel låt","strings":[[[".",".",".",".",".",".",".",".",".",".",".",".",".",".",".",".",".",".",".",".",".",".",".","."],[".",".",".",".",0,".",".",".",".",".",0,".",".",".",".",".",0,".",".",".",".",".",0,"."],[".",0,".",".",".",0,".",0,".",".",".",0,".",0,".",".",".",0,".",0,".",".",".",0],[2,".",2,2,".",".",2,".",2,2,".",".",4,".",4,4,".",".",4,".",4,4,".","."],[3,".",".",3,".",".",3,".",".",3,".",".",5,".",".",5,".",".",5,".",".",5,".","."],[3,".",".",3,".",".",3,".",".",3,".",".",5,".",".",5,".",".",5,".",".",5,".","."]],[[3,"_",5,7,8],[3,"_",3,0,8],[".","_",".",".","."],[".","_",".",".","."],[".","_",".",".","."],[".","_",".",".","."]],[[".","_",".","."],[".","_",".","."],[0,"_",5,4],[5,"_",5,5],[".","_",".","."],[".","_",".","."]]],"numberofstrings":6,"notes":["E","B","G","D","A","E","B"],"capo":"4","stringnotes":["E4","B3","G3","D3","A2","E2"],"timing":[["W","W","W","W","W","W","W","W","W","W","W","W","W","W","W","W","W","W","W","W","W","W","W","W"],["W",null,"W","W","W"],["W",null,"W","W"]],"timingvisible":false,"tabcounter":3,"stave":2,"totalstaves":3,"instrument":"6guitar","selectedtuning":"6_standard","version":"13"}

Member for

4 years 9 months
Submitted by jonathanbonn on Sun, 2017-01-29 08:58