dear louise

Chords

01234567891011121314151617181920212223
E
B
G
D
A
E
B
0 1 2 3 4 5 6 7 8 9 10 11 12 13 14 15 16 17 18 19 20 21 22 23
(/) Slide Up  (\) Slide Down  (h) Hammer On  (p) Pull Off  (b) Bend (r) Release (v) Vibrato

Stave 1:

G|------------------------------------------------------
D|------------------------------------------------------
A|-4-4-4-4-4---------------------------------0-12-11----
E|-----------4-5-5-5-5-5-2-7-7-7-7-7-7-12-12---------12-

Stave 2:

G|----------------------------------------------------
D|----------------------------------------------------
A|-4-4-4-4-4------------------------------------------
E|-----------4-5-5-5-5-5-2-7-7-7-7-7-7-12-12-12-14-16-

							http://www.guitartabcreator.com
Instruments
{"title":"","strings":[[[".",".",".",".",".",".",".",".",".",".",".",".",".",".",".",".",".",".",".",".",".",".",".","."],[".",".",".",".",".",".",".",".",".",".",".",".",".",".",".",".",".",".",".",".",".",".",".","."],[4,4,4,4,4,".",".",".",".",".",".",".",".",".",".",".",".",".",".",".",0,12,11,"."],[".",".",".",".",".",4,5,5,5,5,5,2,7,7,7,7,7,7,12,12,".",".",".",12]],[[".",".",".",".",".",".",".",".",".",".",".",".",".",".",".",".",".",".",".",".",".",".","."],[".",".",".",".",".",".",".",".",".",".",".",".",".",".",".",".",".",".",".",".",".",".","."],[4,4,4,4,4,".",".",".",".",".",".",".",".",".",".",".",".",".",".",".",".",".","."],[".",".",".",".",".",4,5,5,5,5,5,2,7,7,7,7,7,7,12,12,12,14,16]]],"numberofstrings":4,"notes":["G","D","A","E"],"capo":0,"stringnotes":["G2","D2","A1","E1"],"comments":["Stave 1:","Stave 2:"],"timing":[["W","W","W","W","W","W","W","W","W","W","W","W","W","W","W","W","W","W","W","W","W","W","W","W","W"],["W","W","W","W","W","W","W","W","W","W","W","W","W","W","W","W","W","W","W","W","W","W","W"]],"timingvisible":false,"tabcounter":24,"stave":0,"totalstaves":2,"instrument":"4bass","selectedtuning":"4bass_standard","version":"13"}

Member for

4 years 9 months
Submitted by jonathanbonn on Tue, 2017-04-18 11:08