chill vibes

Chords

01234567891011121314151617181920212223
E
B
G
D
A
E
B
0 1 2 3 4 5 6 7 8 9 10 11 12 13 14 15 16 17 18 19 20 21 22 23
(/) Slide Up  (\) Slide Down  (h) Hammer On  (p) Pull Off  (b) Bend (r) Release (v) Vibrato

Stave 1:

E|-----------------------------------
B|-----3-----2--------4--------------
G|-----4-----2--------5--------3-----
D|-----4-----2--------5-----------4--
A|--2-----0-----5--5-----4--4--------
E|--------------3--3-----2--2--------

Stave 2:

E|--------------------------------------
B|-----3-----2--------------------------
G|-----4-----2--5--5--5--5--5--5--5--5--
D|-----4-----2--6--6--6--6--6--6--6--6--
A|--2-----0-----6--6--6--6--6--6--6--6--
E|--------------4--4--4--4--4--4--4--4--

Stave 3:

E|--------------------------------------
B|-----2-----5--------9-----10\9--------
G|-----2-----6-----------9--------9-----
D|-----2-----6--9--9-----------------9--
A|--0-----4-----7--7--------------------
E|--------------------------------------

Stave 4:

E|-----------------
B|-----2-----5-----
G|-----2-----6--4--
D|-----2-----6--5--
A|--0-----4-----5--
E|--------------3--

Stave 5:

E|----------------------------------
B|-----2--3\2--------2--------2-----
G|-----2--2----2--------2--------2--
D|-----2-------2--2--------2--------
A|--0----------0--------------------
E|----------------3--------2--------

							http://www.guitartabcreator.com
Instruments
{"title":"","strings":[[[".",".",".",".",".",".",".",".",".",".","."],[".",3,".",2,".",".",4,".",".",".","."],[".",4,".",2,".",".",5,".",".",3,"."],[".",4,".",2,".",".",5,".",".",".",4],[2,".",0,".",5,5,".",4,4,".","."],[".",".",".",".",3,3,".",2,2,".","."]],[[".",".",".",".",".",".",".",".",".",".",".","."],[".",3,".",2,".",".",".",".",".",".",".","."],[".",4,".",2,5,5,5,5,5,5,5,5],[".",4,".",2,6,6,6,6,6,6,6,6],[2,".",0,".",6,6,6,6,6,6,6,6],[".",".",".",".",4,4,4,4,4,4,4,4]],[[".",".",".",".",".",".",".",".",".",".",".",".","."],[".",2,".",5,".",".",9,".",10,"\\",9,".","."],[".",2,".",6,".",".",".",9,".",".",".",9,"."],[".",2,".",6,9,9,".",".",".",".",".",".",9],[0,".",4,".",7,7,".",".",".",".",".",".","."],[".",".",".",".",".",".",".",".",".",".",".",".","."]],[[".",".",".",".","."],[".",2,".",5,"."],[".",2,".",6,4],[".",2,".",6,5],[0,".",4,".",5],[".",".",".",".",3]],[[".",".",".",".",".",".",".",".",".",".",".","."],[".",2,3,"\\",2,".",".",2,".",".",2,"."],[".",2,2,".",".",2,".",".",2,".",".",2],[".",2,".",".",".",2,2,".",".",2,".","."],[0,".",".",".",".",0,".",".",".",".",".","."],[".",".",".",".",".",".",3,".",".",2,".","."]]],"numberofstrings":6,"notes":["E","B","G","D","A","E","B"],"capo":0,"stringnotes":["E4","B3","G3","D3","A2","E2"],"comments":["Stave 1:","Stave 2:","Stave 3:","Stave 4:","Stave 5:"],"timing":[["W","W","W","W","W","W","W","W","W","W","W"],["W","W","W","W","W","W","W","W","W","W","W","W"],["W","W","W","W","W","W","W","W","W",null,"W","W","W"],["W","W","W","W","W","W","W","W"],["W","W","W",null,"W","W","W","W","W","W","W","W"]],"timingvisible":false,"tabcounter":12,"stave":4,"totalstaves":5,"instrument":"6guitar","selectedtuning":"6_standard","version":"13"}

Member for

4 years 9 months
Submitted by jonathanbonn on Mon, 2017-05-08 11:57