big fuzz solo

Chords

01234567891011121314151617181920212223
E
B
G
D
A
E
B
0 1 2 3 4 5 6 7 8 9 10 11 12 13 14 15 16 17 18 19 20 21 22 23
(/) Slide Up  (\) Slide Down  (h) Hammer On  (p) Pull Off  (b) Bend (r) Release (v) Vibrato

Stave 1:

E|-----------------------------------------------------
B|-14v-11-12p11----------------------------------------
G|--------------11-4/11-11-11-11-4-4-4-2/4-4-4-4-2-1-2-
D|-----------------------------------------------------
A|-----------------------------------------------------
E|-----------------------------------------------------

Stave 2:

E|-------------------------------------------------------14-2-
B|-14p11----12-11-14p11----12-11-14p11----12-11-14p11---------
G|-------11-------------11-------------11-------------11------
D|------------------------------------------------------------
A|------------------------------------------------------------
E|------------------------------------------------------------

Stave 3:

E|-14p0----11-0-14p0----11-0-14p11----11-0-14p0----11-0-
B|------------------------------------------------------
G|------11-----------11------------11-----------11------
D|------------------------------------------------------
A|------------------------------------------------------
E|------------------------------------------------------

Stave 4:

E|-9-11----
B|------12-
G|---------
D|---------
A|---------
E|---------

							http://www.guitartabcreator.com
Instruments
{"title":"","strings":[[[".",".",".",".",".",".",".",".",".",".",".",".",".",".",".",".",".",".",".",".",".",".",".",".","."],[14,"v",11,12,"p",11,".",".",".",".",".",".",".",".",".",".",".",".",".",".",".",".",".",".","."],[".",".",".",".",".",".",11,4,"/",11,11,11,11,4,4,4,2,"/",4,4,4,4,2,1,2],[".",".",".",".",".",".",".",".",".",".",".",".",".",".",".",".",".",".",".",".",".",".",".",".","."],[".",".",".",".",".",".",".",".",".",".",".",".",".",".",".",".",".",".",".",".",".",".",".",".","."],[".",".",".",".",".",".",".",".",".",".",".",".",".",".",".",".",".",".",".",".",".",".",".",".","."]],[[".",".",".",".",".",".",".",".",".",".",".",".",".",".",".",".",".",".",".",".",".",".",14,2],[14,"p",11,".",12,11,14,"p",11,".",12,11,14,"p",11,".",12,11,14,"p",11,".",".","."],[".",".",".",11,".",".",".",".",".",11,".",".",".",".",".",11,".",".",".",".",".",11,".","."],[".",".",".",".",".",".",".",".",".",".",".",".",".",".",".",".",".",".",".",".",".",".",".","."],[".",".",".",".",".",".",".",".",".",".",".",".",".",".",".",".",".",".",".",".",".",".",".","."],[".",".",".",".",".",".",".",".",".",".",".",".",".",".",".",".",".",".",".",".",".",".",".","."]],[[14,"p",0,".",11,0,14,"p",0,".",11,0,14,"p",11,".",11,0,14,"p",0,".",11,0],[".",".",".",".",".",".",".",".",".",".",".",".",".",".",".",".",".",".",".",".",".",".",".","."],[".",".",".",11,".",".",".",".",".",11,".",".",".",".",".",11,".",".",".",".",".",11,".","."],[".",".",".",".",".",".",".",".",".",".",".",".",".",".",".",".",".",".",".",".",".",".",".","."],[".",".",".",".",".",".",".",".",".",".",".",".",".",".",".",".",".",".",".",".",".",".",".","."],[".",".",".",".",".",".",".",".",".",".",".",".",".",".",".",".",".",".",".",".",".",".",".","."]],[[9,11,"."],[".",".",12],[".",".","."],[".",".","."],[".",".","."],[".",".","."]]],"numberofstrings":6,"notes":["E","B","G","D","A","E","B"],"capo":"0","stringnotes":["E4","B3","G3","D3","A2","E2"],"comments":["Stave 1:","Stave 2:","Stave 3:","Stave 4:"],"timing":[["W","W","W","W",null,"W","W","W",null,"W","W","W","W","W","W","W","W",null,"W","W","W","W","W","W","W"],["W",null,"W","W","W","W","W",null,"W","W","W","W","W",null,"W","W","W","W","W",null,"W","W","W","W"],["W",null,"W","W","W","W","W",null,"W","W","W","W","W",null,"W","W","W","W","W",null,"W","W","W","W"],["W","W","W"]],"timingvisible":false,"tabcounter":3,"stave":3,"totalstaves":4,"instrument":"6guitar","selectedtuning":"6_standard","version":"13"}

Member for

4 years 9 months
Submitted by jonathanbonn on Sat, 2017-04-01 06:20