31 aug 2020

Chords

01234567891011121314151617181920212223
E
B
G
D
A
E
B
0 1 2 3 4 5 6 7 8 9 10 11 12 13 14 15 16 17 18 19 20 21 22 23
(/) Slide Up  (\) Slide Down  (h) Hammer On  (p) Pull Off  (b) Bend (r) Release (v) Vibrato

Capo Fret 4

Stave 1:

E |-----------------------------------------------------------------------------------------------
B |-----------------------------------------------------------------------------------------------
Gb|--------5-----------5-----------5-----------5-----------5-----------5-----------5-----------5--
Eb|--------7-----------7-----------7-----------7-----------7-----------7-----------7-----------7--
B |--------x-----------x-----------x-----------x-----------x-----------x-----------x-----------x--
E |--7--7--7--7--7--7--7--7--7--7--7--7--7--7--7--7--7--7--7--7--7--7--7--7--7--7--7--7--7--7--7--

Stave 2:

E |-----------------------------------------------------------------------------------------------
B |-----------------------------------------------------------------------------------------------
Gb|--------0-----------0-----------0-----------0-----------0-----------0-----------0-----------0--
Eb|--------5-----------5-----------5-----------5-----------5-----------5-----------5-----------5--
B |--------4-----------4-----------4-----------4-----------x-----------x-----------x-----------x--
E |--0--0--0--0--0--0--0--0--0--0--0--0--0--0--0--4--4--4--4--4--4--4--4--2--2--2--2--2--2--2--2--

Stave 3:

E |-----------------------------------------
B |--0--0--0--0--0--0--0--0--0--0--0--0--0--
Gb|--0--0--0--0--0--0--0--0--0--0--0--0--0--
Eb|--5--5--5--5--5--5--5--5--5--5--5--5--3--
B |--5--5--5--4--4--4--x--x--x--x--x--x--2--
E |--------------------4--4--4--2--2--2--2--

Stave 4:

E |--------------
B |--0--0--0--0--
Gb|--0--0--0--0--
Eb|--8--8--5--3--
B |--7--0--0--0--
E |--0--7--4--2--

Stave 5:

E |-------------
B |-------------
Gb|-----------4b
Eb|--3-----5--0-
B |--2-----4--0-
E |--2-----4--0-

							http://www.guitartabcreator.com
Tab Notes
sista ackordet i stave 3 : x16
Instruments
{"strings":[[[".",".",".",".",".",".",".",".",".",".",".",".",".",".",".",".",".",".",".",".",".",".",".",".",".",".",".",".",".",".","."],[".",".",".",".",".",".",".",".",".",".",".",".",".",".",".",".",".",".",".",".",".",".",".",".",".",".",".",".",".",".","."],[".",".",5,".",".",".",5,".",".",".",5,".",".",".",5,".",".",".",5,".",".",".",5,".",".",".",5,".",".",".",5],[".",".",7,".",".",".",7,".",".",".",7,".",".",".",7,".",".",".",7,".",".",".",7,".",".",".",7,".",".",".",7],[".",".","x7",".",".",".","x7",".",".",".","x7",".",".",".","x7",".",".",".","x7",".",".",".","x7",".",".",".","x7",".",".",".","x7"],[7,7,7,7,7,7,7,7,7,7,7,7,7,7,7,7,7,7,7,7,7,7,7,7,7,7,7,7,7,7,7]],[[".",".",".",".",".",".",".",".",".",".",".",".",".",".",".",".",".",".",".",".",".",".",".",".",".",".",".",".",".",".","."],[".",".",".",".",".",".",".",".",".",".",".",".",".",".",".",".",".",".",".",".",".",".",".",".",".",".",".",".",".",".","."],[".",".",0,".",".",".",0,".",".",".",0,".",".",".",0,".",".",".",0,".",".",".",0,".",".",".",0,".",".",".",0],[".",".",5,".",".",".",5,".",".",".",5,".",".",".",5,".",".",".",5,".",".",".",5,".",".",".",5,".",".",".",5],[".",".",4,".",".",".",4,".",".",".",4,".",".",".",4,".",".",".","x4",".",".",".","x4",".",".",".","x4",".",".",".","x4"],[0,0,0,0,0,0,0,0,0,0,0,0,0,0,0,4,4,4,4,4,4,4,4,2,2,2,2,2,2,2,2]],[[".",".",".",".",".",".",".",".",".",".",".",".","."],[0,0,0,0,0,0,0,0,0,0,0,0,0],[0,0,0,0,0,0,0,0,0,0,0,0,0],[5,5,5,5,5,5,5,5,5,5,5,5,3],[5,5,5,4,4,4,"x7","x7","x5","x12","x19","x13",2],[".",".",".",".",".",".",4,4,4,2,2,2,2]],[[".",".",".","."],[0,0,0,0],[0,0,0,0],[8,8,5,3],[7,0,0,0],[0,7,4,2]],[[".","_",".",".","."],[".","_",".",".","."],[".","_",".",4,"b"],[3,"_",5,0,"."],[2,"_",4,0,"."],[2,"_",4,0,"."]]],"numberofstrings":6,"notes":["E","B","FsGb","DsEb","B","E","B"],"capo":"4","stringnotes":["E4","B3","Gb3","Eb3","B2","E2"],"comments":["Stave 1:","Stave 2:","Stave 3:","Stave 4:","Stave 5:"],"timing":[["W","W","W","W","W","W","W","W","W","W","W","W","W","W","W","W","W","W","W","W","W","W","W","W","W","W","W","W","W","W","W"],["W","W","W","W","W","W","W","W","W","W","W","W","W","W","W","W","W","W","W","W","W","W","W","W","W","W","W","W","W","W","W"],["W","W","W","W","W","W","W","W","W","W","W","W","W"],["W","W","W","W"],["W",null,"W","W"]],"timingvisible":false,"tabcounter":5,"stave":4,"totalstaves":5,"instrument":"6guitar","selectedtuning":"6_standard","version":"13"}

Member for

4 years 9 months
Submitted by jonathanbonn on Mon, 2020-08-31 14:30