Sound will begin in 5 seconds

unknown

01234567891011121314151617181920212223
E
B
G
D
A
E
B
0 1 2 3 4 5 6 7 8 9 10 11 12 13 14 15 16 17 18 19 20 21 22 23
Song Science #1: How Pros Use 6 Chords to Write Hit Songs
(/) Slide Up  (\) Slide Down  (h) Hammer On  (p) Pull Off  (b) Bend (r) Release (v) Vibrato

Stave 1:

E|--------------------------------------------------------------------------------------------------
B|---------------------------------------------8b---5-----5-----------------2v----------------------
G|----------------------------5--7\9-------------------8-----8--7--5--------------------------------
D|--------------------5--7\9----------------------------------------------------------5v--------2v--
A|------3--5\7--5--7--------------------------------------------------------------------------------
E|--b5----------------------------------------------------------------------------------------------

Stave 2:

E|-------------------------------------------------5h8h5----------------------
B|--------------------------------------------------------5h8h5/3h5h3---------
G|--------------2v--------------------5v-------------------------------5--2v--
D|--------2--5------------------5--7------------------------------------------
A|--3--5------------------5--7------------------------------------------------
E|----------------------------------------------------------------------------

Stave 3:

E|----------------------------------------------5h8h5--3h5h3------------
B|------------------------------------------------------------5v--------
G|------------------------------------9v--------------------------------
D|---------7--9--12v------------7--9------------------------------------
A|--7--10----------------7--10------------------------------------------
E|----------------------------------------------------------------------

Stave 4:

E|----------------------------------------------------------------------------------
B|-----------------------------------------------------------------------------14v--
G|------------7--9--7------------------7--9--7--------------------------------------
D|--7--9--10-----------9-----7--9--10-----------9--------7--9--------7v-------------
A|----------------------------------------------------------------------------------
E|----------------------------------------------------------------------------------

http://www.guitartabcreator.com
Guitar Tab Creator is intended to store guitar tab created through the tool. It currently does not support in-line text editing. Any text you place in here will be lost. If you need to comment on your tab, please use the "Tab Notes" section located below.