san lucas-kevin karl

01234567891011121314151617181920212223
E
B
G
D
A
E
B
0 1 2 3 4 5 6 7 8 9 10 11 12 13 14 15 16 17 18 19 20 21 22 23
(/) Slide Up  (\) Slide Down  (h) Hammer On  (p) Pull Off  (b) Bend (r) Release (v) Vibrato

Stave 1:

E|-----------------------------------------------------------------
B|-----0--------0-----------0--------------0--------0--------0-----
G|-----0--------0-----------0--------------0--------0--------0-----
D|-----------------------------------------------------------------
A|-----------------------------------------------------------------
E|--0--------0--------0-----------0--2--3--------3--------3--------

Stave 2:

E|----------------------------------------------0--------------
B|-----1p0-----------0-----------0--------0--------3--------0--
G|-----0-------------0-----------0--------0-----------------0--
D|-------------------------------------------------------------
A|-----3----------------------------------------3--------------
E|-------------3-----------3-----------3-----------------3-----

Stave 3:

E|-----------------------------------------------------------------
B|-----0--------0-----0--------0-----0-----0-----------0-----0-----
G|-----0--------0-----0--------0-----0-----0-----------0-----0-----
D|-----------------------------------------------------------------
A|-----------------------------------------------------------------
E|--3--------3-----2--------0-----0-----0-----0--2--3-----3--------

Stave 4:

E|-------------------------------------0--------------------------------
B|-----0-----1p0-----0-----0-----0--------3--------0-----0-----0--------
G|-----0-----0-------0-----0-----0-----------------0-----0-----0--------
D|----------------------------------------------------------------------
A|-----------3-------------------------3--------------------------------
E|--3-------------3-----3-----3-----------------3-----3-----3-----------

Stave 5:

E|-----------------0--0--0--0--0--------------------------------------
B|-----0-----0-----0--0--0--0--0-----3--1-----0-----0-----0-----1--0--
G|-----0-----0-----0--0--0--0--0--------------0-----0-----0-----0--0--
D|-----------------------------------0--------------------------2-----
A|--------------------------------------3--2--------------------3-----
E|--2-----0--------------------------------3-----3-----3--------------

Stave 6:

E|----------------------------------------------------------------------------0-----
B|-----0-----0-----0-----1--0--------0----------------------------------------0-----
G|-----0-----0-----0-----0--0--------0-----0--0--0h2--2--2--2-----------------0-----
D|-----------------------2-----------------0--0--0----0--0--0-----------------2-----
A|-----------------------3-----------------0--0--0----0--0--0-----------------2-----
E|--3-----3-----3-----------------3--------3--3--3----3--3--3-----3--2--0-----0-----

Stave 7:

E|---------------------------------------------------------------------
B|-----------0-----0--0--0--0--0-----1-0--------0-----0--0--0--0--0--
G|-----------0-----0--0--0--0--0-----0-0--------0-----0--0--0--0--0--
D|-----------------0--0--0--0--0-----2----------------0--0--0--0--0--
A|-----------------------------------3-------------------------------
E|--0--2--3------------------------------------3-----------------------

							http://www.guitartabcreator.com
Chords

Instruments
{"strings":[[[".",".","_",".",".","_",".","_",".","_",".",".",".",".","_",".",".","_",".",".","_"],[".",0,"_",".",0,"_",".","_",0,"_",".",".",".",0,"_",".",0,"_",".",0,"_"],[".",0,"_",".",0,"_",".","_",0,"_",".",".",".",0,"_",".",0,"_",".",0,"_"],[".",".","_",".",".","_",".","_",".","_",".",".",".",".","_",".",".","_",".",".","_"],[".",".","_",".",".","_",".","_",".","_",".",".",".",".","_",".",".","_",".",".","_"],[0,".","_",0,".","_",0,"_",".","_",0,2,3,".","_",3,".","_",3,".","_"]],[[".",".",".",".",".",".",".",".",".",".",".",".",".",".",".",".",0,".",".",".","."],[".",1,"p",0,".",".",".",0,".",".",".",0,".",".",0,".",".",3,".",".",0],[".",0,".",".",".",".",".",0,".",".",".",0,".",".",0,".",".",".",".",".",0],[".",".",".",".",".",".",".",".",".",".",".",".",".",".",".",".",".",".",".",".","."],[".",3,".",".",".",".",".",".",".",".",".",".",".",".",".",".",3,".",".",".","."],[".",".",".",".",".",3,".",".",".",3,".",".",".",3,".",".",".",".",".",3,"."]],[[".",".",".",".",".",".",".",".",".",".",".",".",".",".",".",".",".",".",".",".","."],[".",0,".",".",0,".",0,".",".",0,".",0,".",0,".",".",".",0,".",0,"."],[".",0,".",".",0,".",0,".",".",0,".",0,".",0,".",".",".",0,".",0,"."],[".",".",".",".",".",".",".",".",".",".",".",".",".",".",".",".",".",".",".",".","."],[".",".",".",".",".",".",".",".",".",".",".",".",".",".",".",".",".",".",".",".","."],[3,".",".",3,".",2,".",".",0,".",0,".",0,".",0,2,3,".",3,".","."]],[[".",".",".",".",".",".",".",".",".",".",".",".",".",0,".",".",".",".",".",".",".",".",".","."],[".",0,".",1,"p",0,".",0,".",0,".",0,".",".",3,".",".",0,".",0,".",0,".","."],[".",0,".",0,".",".",".",0,".",0,".",0,".",".",".",".",".",0,".",0,".",0,".","."],[".",".",".",".",".",".",".",".",".",".",".",".",".",".",".",".",".",".",".",".",".",".",".","."],[".",".",".",3,".",".",".",".",".",".",".",".",".",3,".",".",".",".",".",".",".",".",".","."],[3,".",".",".",".",".",3,".",3,".",3,".",".",".",".",".",3,".",3,".",3,".",".","."]],[[".",".",".",".",".",0,0,0,0,0,".",".",".",".",".",".",".",".",".",".",".","."],[".",0,".",0,".",0,0,0,0,0,".",3,1,".",0,".",0,".",0,".",1,0],[".",0,".",0,".",0,0,0,0,0,".",".",".",".",0,".",0,".",0,".",0,0],[".",".",".",".",".",".",".",".",".",".",".",0,".",".",".",".",".",".",".",".",2,"."],[".",".",".",".",".",".",".",".",".",".",".",".",3,2,".",".",".",".",".",".",3,"."],[2,".",0,".",".",".",".",".",".",".",".",".",".",3,".",3,".",3,".",".",".","."]],[[".",".",".",".",".",".",".",".",".",".",".",".",".",".",".",".",".",".","_","_","_",".","_","_",".","_",0,"_"],[".",0,".",0,".",0,".",1,0,".",".",0,".",".",".",".",".",".","_","_","_",".","_","_",".","_",0,"_"],[".",0,".",0,".",0,".",0,0,".",".",0,".",0,0,0,"h",2,2,2,2,".","_","_",".","_",0,"_"],[".",".",".",".",".",".",".",2,".",".",".",".",".",0,0,0,".",".",0,0,0,".","_","_",".","_",2,"_"],[".",".",".",".",".",".",".",3,".",".",".",".",".",0,0,0,".",".",0,0,0,".","_","_",".","_",2,"_"],[3,".",3,".",3,".",".",".",".",".",3,".",".",3,3,3,".",".",3,3,3,".",3,2,0,"_",0,"_"]],[[".","_","_","_","_","_","_","_","_","_","_","_","_","_","_","_","_","_","_","_","_","_","_"],[".","_","_",0,".",0,0,0,0,0,"_",1,"p",0,"_","_",0,"_",0,0,0,0,0],[".","_","_",0,".",0,0,0,0,0,"_",0,"p",0,"_","_",0,"_",0,0,0,0,0],[".","_","_","_",".",0,0,0,0,0,"_",2,"_","_","_","_",".","_",0,0,0,0,0],[".","_","_","_","_","_","_","_","_","_","_",3,"_","_","_","_","_","_","_","_","_","_","_"],[0,2,3,"_","_","_","_","_","_","_","_","_","_","_","_",3,"_","_","_","_","_","_","_"]]],"numberofstrings":6,"notes":["E","B","G","D","A","E","B"],"capo":0,"stringnotes":["E4","B3","G3","D3","A2","E2"],"comments":["Stave 1:","Stave 2:","Stave 3:","Stave 4:","Stave 5:","Stave 6:","Stave 7:"],"timing":[["W","W",null,"W","W",null,"W","W","W",null,"W","W","W","W","W","W","W",null,"W","W"],["W","W",null,"W","W","W","W","W","W",null,"W","W",null,null,"W","W",null,"W","W",null,"W","W"],[null,"W","W",null,"W","W","W","W",null,"W","W","W","W","W","W","W","W","W","W","W",null,"W"],[null,"W","W",null,"W","W","W","W","W","W","W",null,"W","W","W","W",null,"W","W","W","W","W","W","W"],[null,"W","W","W","W",null,"W","W","W","W","W",null,"W","W","W","W","W","W","W","W",null,"W","W"],[null,"W","W","W","W","W","W","W","W","W",null,null,null,null,null,null,null,null,null,null,null,null,null,null,null,null,null,null,"W"],[null,"W","W","W","W","W","W","W","W","W","W","W","W","W","W","W","W","W","W","W","W","W","W","W"]],"timingvisible":false,"tabcounter":23,"stave":6,"totalstaves":7,"instrument":"6guitar","selectedtuning":"6_standard","version":"13"}

Member for

4 years 9 months
Submitted by jonaengugo on Fri, 2021-03-05 17:05