Sound will begin in 5 seconds

Sweet Child O' Mine by Guns N' Roses

Chords
01234567891011121314151617181920212223
E
B
G
D
A
E
B
0 1 2 3 4 5 6 7 8 9 10 11 12 13 14 15 16 17 18 19 20 21 22 23
Song Science #1: How Pros Use 6 Chords to Write Hit Songs
(/) Slide Up  (\) Slide Down  (h) Hammer On  (p) Pull Off  (b) Bend (r) Release (v) Vibrato

Stave 1:

E|------------------15------14------------------------15------14------
B|------15--------------------------------15--------------------------
G|----------14--12------14------14------------14--12------14------14--
D|--12--------------------------------12------------------------------
A|--------------------------------------------------------------------
E|--------------------------------------------------------------------

Stave 2:

E|------------------15------14------------------------15------14------
B|------15--------------------------------15--------------------------
G|----------14--12------14------14------------14--12------14------14--
D|--14--------------------------------14------------------------------
A|--------------------------------------------------------------------
E|--------------------------------------------------------------------

Stave 3:

E|------------------15------14------------------------15------14------
B|------15--------------------------------15--------------------------
G|--12------14--12------14------14----12------14--12------14------14--
D|--------------------------------------------------------------------
A|--------------------------------------------------------------------
E|--------------------------------------------------------------------

Stave 4:

E|------------------15------14------------------------15------14------
B|------15--------------------------------15--------------------------
G|----------14--12------14------14------------14--12------14------14--
D|--12--------------------------------12------------------------------
A|--------------------------------------------------------------------
E|--------------------------------------------------------------------

Stave 5:

E|------------------15------14------------------------15------14------
B|------15--------------------------------15--------------------------
G|----------14--12------14------14------------14--12------14------14--
D|--12--------------------------------12------------------------------
A|--------------------------------------------------------------------
E|--------------------------------------------------------------------

Stave 6:

E|------------------15------14------------------------15------14------
B|------15--------------------------------15--------------------------
G|----------14--12------14------14------------14--12------14------14--
D|--14--------------------------------14------------------------------
A|--------------------------------------------------------------------
E|--------------------------------------------------------------------

Stave 7:

E|------------------15------14------------------------15------14------
B|------15--------------------------------15--------------------------
G|--12------14--12------14------14----12------14--12------14------14--
D|--------------------------------------------------------------------
A|--------------------------------------------------------------------
E|--------------------------------------------------------------------

Stave 8:

E|------------------15------14------------------------15------14------
B|------15--------------------------------15--------------------------
G|----------14--12------14------14------------14--12------14------14--
D|--12--------------------------------12------------------------------
A|--------------------------------------------------------------------
E|--------------------------------------------------------------------

Stave 9:

E|------------------15------14------------------------15------14------
B|------15--------------------------------15--------------------------
G|----------14--12------14------14------------14--12------14------14--
D|--12--------------------------------12------------------------------
A|--------------------------------------------------------------------
E|--------------------------------------------------------------------

Stave 10:

E|------------------15------14------------------------15------14------
B|------15--------------------------------15--------------------------
G|----------14--12------14------14------------14--12------14------14--
D|--14--------------------------------14------------------------------
A|--------------------------------------------------------------------
E|--------------------------------------------------------------------

Stave 11:

E|------------------15------14------------------------15------14------
B|------15--------------------------------15--------------------------
G|--12------14--12------14------14----12------14--12------14------14--
D|--------------------------------------------------------------------
A|--------------------------------------------------------------------
E|--------------------------------------------------------------------

Stave 12:

E|--12--------------12------14------15------14------12------10--
B|----------15--------------------------------------------------
G|------14------14------14------14------14------14------14------
D|--------------------------------------------------------------
A|--------------------------------------------------------------
E|--------------------------------------------------------------

Stave 13:

E|--2--2--2--2--2----2--2--2--2--2----3--3--3--3--3----3--3--3--3--3--
B|--3--3--3--3--3----3--3--3--3--3----3--3--3--3--3----3--3--3--3--3--
G|--2--2--2--2--2----2--2--2--2--2----0--0--0--0--0----0--0--0--0--0--
D|--0--0--0--0--0----0--0--0--0--0----2--2--2--2--2----2--2--2--2--2--
A|--0--0--0--0--0----0--0--0--0--0----3--3--3--3--3----3--3--3--3--3--
E|--0--0--0--0--0----0--0--0--0--0----0--0--0--0--0----0--0--0--0--0--

Stave 14:

E|--3--3--3--3--3----3--3--3--3--3----2--2--2--2--2----2--2--2--2--2--
B|--3--3--3--3--3----3--3--3--3--3----3--3--3--3--3----3--3--3--3--3--
G|--0--0--0--0--0----0--0--0--0--0----2--2--2--2--2----2--2--2--2--2--
D|--0--0--0--0--0----0--0--0--0--0----0--0--0--0--0----0--0--0--0--0--
A|--2--2--2--2--2----2--2--2--2--2----0--0--0--0--0----0--0--0--0--0--
E|--3--3--3--3--3----3--3--3--3--3----0--0--0--0--0----0--0--0--0--0--

Stave 15:

E|--2--2--2--2--2----2--2--2--2--2----3--3--3--3--3----3--3--3--3--3--
B|--3--3--3--3--3----3--3--3--3--3----3--3--3--3--3----3--3--3--3--3--
G|--2--2--2--2--2----2--2--2--2--2----0--0--0--0--0----0--0--0--0--0--
D|--0--0--0--0--0----0--0--0--0--0----2--2--2--2--2----2--2--2--2--2--
A|--0--0--0--0--0----0--0--0--0--0----3--3--3--3--3----3--3--3--3--3--
E|--0--0--0--0--0----0--0--0--0--0----0--0--0--0--0----0--0--0--0--0--

Stave 16:

E|--3--3--3--3--3----3--3--3--3--3----2--2--2--2--2----2--2--2--2--2--
B|--3--3--3--3--3----3--3--3--3--3----3--3--3--3--3----3--3--3--3--3--
G|--0--0--0--0--0----0--0--0--0--0----2--2--2--2--2----2--2--2--2--2--
D|--0--0--0--0--0----0--0--0--0--0----0--0--0--0--0----0--0--0--0--0--
A|--2--2--2--2--2----2--2--2--2--2----0--0--0--0--0----0--0--0--0--0--
E|--3--3--3--3--3----3--3--3--3--3----0--0--0--0--0----0--0--0--0--0--

Stave 17:

E|-----------------10-----9-----------------------13------12------
B|-------10---------------------------13--------------------------
G|-----------9--7------9-----9------------12--10------12------12--
D|----7---------------------------10------------------------------
A|----------------------------------------------------------------
E|----------------------------------------------------------------

Stave 18:

E|--------------------15------14------------------------15------14------
B|--------15--------------------------------15--------------------------
G|------------14--12------14------14------------14--12------14------14--
D|----12--------------------------------12------------------------------
A|----------------------------------------------------------------------
E|----------------------------------------------------------------------

Stave 19:

E|-----------------10-----9-----------------------13------12--------10--
B|-------10---------------------------13--------------------------------
G|-----------9--7------9-----9------------12--10------12------12--------
D|----7---------------------------10------------------------------------
A|----------------------------------------------------------------------
E|----------------------------------------------------------------------

Stave 20:

E|------------------------------------------------------------------------
B|------------------------------------------------------------------------
G|----14--12----11------14--12----11------14--12------------14--12--------
D|--------------------------------------------------14----------------14--
A|------------------------------------------------------------------------
E|------------------------------------------------------------------------

Stave 21:

E|--------------------------------------------------------
B|-----------------------------------15--15b17r15---------
G|----14--12----14b16r14--12--14b16-----------------------
D|-------------------------------------------------14b17--
A|--------------------------------------------------------
E|--------------------------------------------------------

Stave 22:

E|--2--2--2--2--2----2--2--2--2--2----3--3--3--3--3----3--3--3--3--3--
B|--3--3--3--3--3----3--3--3--3--3----3--3--3--3--3----3--3--3--3--3--
G|--2--2--2--2--2----2--2--2--2--2----0--0--0--0--0----0--0--0--0--0--
D|--0--0--0--0--0----0--0--0--0--0----2--2--2--2--2----2--2--2--2--2--
A|--0--0--0--0--0----0--0--0--0--0----3--3--3--3--3----3--3--3--3--3--
E|--0--0--0--0--0----0--0--0--0--0----0--0--0--0--0----0--0--0--0--0--

Stave 23:

E|--3--3--3--3--3----3--3--3--3--3----2--2--2--2--2----2--2--2--2--2--
B|--3--3--3--3--3----3--3--3--3--3----3--3--3--3--3----3--3--3--3--3--
G|--0--0--0--0--0----0--0--0--0--0----2--2--2--2--2----2--2--2--2--2--
D|--0--0--0--0--0----0--0--0--0--0----0--0--0--0--0----0--0--0--0--0--
A|--2--2--2--2--2----2--2--2--2--2----0--0--0--0--0----0--0--0--0--0--
E|--3--3--3--3--3----3--3--3--3--3----0--0--0--0--0----0--0--0--0--0--

Stave 24:

E|----------
B|----------
G|--14--12--
D|----------
A|----------
E|----------

http://www.guitartabcreator.com
Guitar Tab Creator is intended to store guitar tab created through the tool. It currently does not support in-line text editing. Any text you place in here will be lost. If you need to comment on your tab, please use the "Tab Notes" section located below.