Sound will begin in 5 seconds

Vincent

Chords
01234567891011121314151617181920212223
E
B
G
D
A
E
B
0 1 2 3 4 5 6 7 8 9 10 11 12 13 14 15 16 17 18 19 20 21 22 23
(/) Slide Up  (\) Slide Down  (h) Hammer On  (p) Pull Off  (b) Bend (r) Release (v) Vibrato

Stave 1:

E|-----------------------------|--------------------------|--------------------------|--
B|--0--------------------------|--0--------0--1--------1--|--0--------0--0-----------|--
G|--0--------------------0--2--|--0-----0-----0-----0-----|--0-----0-----0--2--0-----|--
D|--0--------------0--2--------|-----0-----------0--------|-----0-----------------2--|--
A|-----------------------------|--------------------------|--------------------------|--
E|--3--------------------------|--3-----------3-----------|--3-----------3-----------|--

Stave 2:

E|--------------------------------|--------------------------|-----------------------------
B|-----0--------------------------|--------------0-----------|-----0-----------------------
G|--2-----------0--------0-----2--|--------2-----2--2--0-----|--2--------0--------0--0--0--
D|-----------2--------2-----2-----|-----2-----2-----------2--|--2-----2--------2-----------
A|--0--------------0--------------|--0-----------0-----------|--3-----------3-----------5--
E|--------------------------------|--------------------------|-----------------------------

Stave 3:

E|-----------------------------|-----------------------------|-----------------------|--
B|-----------------------------|--0-----------------------0--|--------0--1--------1--|--
G|-----------------------0--2--|--0-----0-----------0--2--0--|-----0-----0-----0-----|--
D|--4--------2--0--2--4--------|-----0-----0--0--2-----------|--0-----------0--------|--
A|-----------------------------|-----------------------------|-----------------------|--
E|-----------------------------|--3-----------3-----------3--|-----------3-----------|--

Stave 4:

E|--------------------------|-----------------------------|--------------------------|--
B|--0--------0--0-----------|-----0-----------------------|--------------0-----------|--
G|--0-----0-----0--2--0-----|--2--------0--------0-----2--|--2-----2-----2--2--0-----|--
D|-----0-----------------2--|--------2--------2-----2-----|-----2-----2-----------2--|--
A|--------------------------|--0-----------0--------------|--0-----------0-----------|--
E|--3-----------3-----------|-----------------------------|--------------------------|--

Stave 5:

E|--------------------------|-----------------------------|--------------------------|--
B|-----0--------------------|-----------------------------|-----------0--------0-----|--
G|--2--------0--------0--0--|--0--------------------0--2--|--0-----0-----0--2--0--0--|--
D|--2-----2--------2--------|-----4-----2--0--2--4--------|-----0--------------------|--
A|--3-----------3-----------|--5--------------------------|--------------------------|--
E|--------------------------|-----------------------------|--3-----------3-----------|--

Stave 6:

E|--------------------------|--------------------------|-----------0--------------|--
B|-----------0--------------|-----------------0-----3--|--0-----------------3-----|--
G|--2-----2--------0-----0--|--------2-----2-----5-----|--0-----0--------2--------|--
D|-----2--------------2-----|-----4-----4--4-----------|-----0-----------------0--|--
A|--0-----------0-----------|--5-----------5-----------|--------------------------|--
E|--------------------------|--------------------------|--3-----------2-----------|--

Stave 7:

E|--------------0--------------|--------------------------|--------------------------|--
B|--------3--3--0--3--0--------|--0-----------------------|-----------------0--------|--
G|--------0--0-----------2--0--|-----2--2-----------2-----|-----2--2--2--2-----5--2--|--
D|-----0-----------------------|-----------2-----2-----2--|-----4--4--4--4-----------|--
A|-----------------------------|--0-----------0-----------|--5-----------5-----------|--
E|--0-----------0--------------|--------------------------|--------------------------|--

Stave 8:

E|-----------------------------------|--------------------------|--------------------------
B|--0--------0--0--1--0--------------|-----0--------------------|--------------------------
G|--0-----0--------------2--0-----2--|-----------0--------0-----|-----------------0--2-----
D|-----0-----------------------2-----|--2-----2--------2-----2--|-----------0--4--------4--
A|-----------------------------------|--0-----------0-----------|--5-----------------------
E|--0--------------------------------|--------------------------|--------------------------

Stave 9:

E|--------------------------|--------------------------|--------------------------|--
B|--------------------0--0--|-----------0--------------|-----------------0-----3--|--
G|--0-----0--0--0--2--------|--2-----2--------0-----0--|--------2-----2-----5-----|--
D|-----0--------0-----------|-----2--------------2-----|-----4-----4--4-----------|--
A|--------------------------|--0-----------0-----------|--5-----------5-----------|--
E|--3-----------3-----------|--------------------------|--------------------------|--

Stave 10:

E|-----------0--------------|-----------------------|--0-----------------------------
B|--0-----------------3-----|-----------0--0--1--3--|--1--3--3--1--1--0-----0--1--4--
G|--0-----0--------2--------|--------0--------------|--0-----------------2--0-----5--
D|-----0-----------------0--|-----0-----------------|-----------------------------5--
A|--------------------------|-----------------------|--3--------------------------3--
E|--3-----------2-----------|--0-----------0--------|--------------------------------

Stave 11:

E|-----------------------------0--|-----------------------------|--------------------------
B|-----3-----3-----3--4-----------|--3--1--1--0--0--------0--0--|-----------0-----0--0--0--
G|--------------5-----------------|--0-----0-----0--0--2-----1--|--------1--------1--1--1--
D|--------------------------------|--------------0--------------|-----0-----------0--0--0--
A|--------------------------------|-----------------------------|--------------------------
E|--------------------------------|--3-----------1--------------|--0-----------0-----------

Stave 12:

E|--------------------------|--------------------------|--------------------|-----------------
B|--1--0--0--------0-----1--|--1--0--0-----------------|--0-----------------|-----------------
G|--2--------2--2-----------|--0--------2--2--0-----0--|--2-----2--------0--|-----------------
D|--2-----------------------|--2-----------------4-----|--4-----------------|--4--------------
A|--0-----------------------|--3-----------------------|--5-----------------|-----------------
E|--------------------------|--------------------------|--------------------|-----------------

Stave 13:

E|--------------------------|-----------------------
B|--------------------------|--------------------0--
G|--0-----0-----------0--2--|--------------------2--
D|-----2-----2--0--2--0-----|--------------------0--
A|--3-----------2-----0-----|-----------------------
E|--------------------------|--------------------3--

http://www.guitartabcreator.com
Guitar Tab Creator is intended to store guitar tab created through the tool. It currently does not support in-line text editing. Any text you place in here will be lost. If you need to comment on your tab, please use the "Tab Notes" section located below.