Race Against Fate in progress

Chords

01234567891011121314151617181920212223
E
B
G
D
A
E
B
0 1 2 3 4 5 6 7 8 9 10 11 12 13 14 15 16 17 18 19 20 21 22 23
(/) Slide Up  (\) Slide Down  (h) Hammer On  (p) Pull Off  (b) Bend (r) Release (v) Vibrato

Stave 1:

E|--------------------------------------------------------------------------
B|--1-----0--1--3-----------------------------0-----1--0--------------------
G|--------------------------------------------------------0-----------------
D|-----------------------0--2--2-----------------------------------0--2--2--
A|--------------------------------------------------------------------------
E|--------------------------------------------------------------------------

Stave 2:

E|--0-----0-----1-----0-----0-----------------------------------------------------------------------------------------------------------
B|-----------3-----------------------0--------------0-----------------------------------------------------------------------------------
G|-----2-----------2-----2-----0--------2--------------0-----2--0--------------0--2-----------2-----------2--------2--------2--------2--
D|-----------------------------------------3-----3-----------------0-----2--2--------------2-----2-----2--------------------------------
A|--------------------------------3-----------0-----------------------------------------0-----------0-----------------------------------
E|--------------------------------------------------------3-----------0-----------------------------------------------------------------

Stave 3:

E|-----------------------------------------------------------------------------------0-----------------0-----------------------------------
B|-----------0--1--------------0--1-----------------0--------------------0-----0--1--------0-----0--1-----------------0-----------------0--
G|--2--0--2-----------2--0--2-----------0-----0--2--------0-----0--2--------2-----------------2--------------0-----0--------0-----0--2-----
D|-----------------------------------------2-----------------2--------------------------------------------------2--------------2-----------
A|--0--------------------------------------------------------------------0-----------------------------------------------------------------
E|--------------------1-----------------3-----------------3--------------------------------1-----------------3--------------3--------------

Stave 4:

E|--0-----0-----0-----0-----1-----1-----1-----1-----0-----0-----0-----------------------------------------------------------------------------------
B|-----------------------3--------------------------------------------0-----------------------------0-----0-----0-----0-----0-----0-----0-----0-----
G|-----2-----2-----2-----------2-----2-----2-----2-----0-----0-----0-----0--2-----2-----2-----2--------0-----0-----0-----0-----0-----0-----0-----0--
D|--------------------------0--------------------------------------------------3-----3-----3-----3--------------------------------------------------
A|--0-----------------------------------------------3-----------------------------------------------------------------------------------------------
E|--------------------------------------------------------------------------1-----------------------0-----------------------3-----------------------

Stave 5:

E|-----------------------------------------------------
B|-----------------------------------------------------
G|--2-----2-----2-----2-----2-----2-----2-----2-----2--
D|-----2-----2-----2-----2-----2-----2-----2-----2-----
A|--0--------------------------------------------------
E|-----------------------------------------------------

Stave 6:

E|--------------------------------------------------------------------------------------------------------------------------------------------------
B|--1--------1--------1--------3--------3--------3--------3--------3--------0--------0--------0--------0--------0--------0--------0--------0--------
G|-----2--------2--------2--------2--------2--------2--------2--------2--------0--------0--------0--------0--------0--------0--------0--------0-----
D|--------2--------2--------2--------2--------2--------2--------2--------2--------0--------0--------0--------0--------0--------0--------0--------0--
A|--0--------------------------0--------------------------------------------------------------------------------------------------------------------
E|--------------------------------------------------------------------------3-----------------------------------------------------------------------

Stave 7:

E|--------------------------------------------------------------------------------------------------------------------------
B|--0--------0--------0--------1--------------------------------------------------------------------------------------------
G|-----2--------2--------2--------2-----0--------0--------0--------0--------------------------------------------------------
D|--------2--------2--------2--------2-----2--------2--------2--------2-----2-----2-----2-----2-----2-----2-----2-----2-----
A|--0-----------------------------------------0--------0--------0--------0-----3-----3-----3-----3-----3-----3-----3-----3--
E|--------------------------------------------------------------------------------------------------------------------------

							http://www.guitartabcreator.com
Tab Notes
stave 1 = part 1 stave 2 = part 2 stave 3 = part 3 stave 4+5 = part 4 stave 6+7 = part 5 part 6 next
genre
Instruments
{"strings":[[[".","_",".",".",".","_","_",".",".",".","_","_","_","_",".","_",".",".",".","_","_",".",".","."],[1,"_",0,1,3,"_","_",".",".",".","_","_","_","_",0,"_",1,0,".","_","_",".",".","."],[".","_",".",".",".","_","_",".",".",".","_","_","_","_",".","_",".",".",0,"_","_",".",".","."],[".","_",".",".",".","_","_",0,2,2,"_","_","_","_",".","_",".",".",".","_","_",0,2,2],[".","_",".",".",".","_","_",".",".",".","_","_","_","_",".","_",".",".",".","_","_",".",".","."],[".","_",".",".",".","_","_",".",".",".","_","_","_","_",".","_",".",".",".","_","_",".",".","."]],[[0,".",0,".",1,".",0,".",0,".",".",".",".",".",".",".",".",".",".",".",".",".",".",".",".",".",".","_",".",".",".",".",".",".",".","_","_",".","_","_",".","_","_","."],[".",".",".",3,".",".",".",".",".",".",".",0,".",".",".",".",0,".",".",".",".",".",".",".",".",".",".","_",".",".",".",".",".",".",".","_","_",".","_","_",".","_","_","."],[".",2,".",".",".",2,".",2,".",0,".",".",2,".",".",".",".",0,".",2,0,".",".",".",".",0,2,"_",".",".",2,".",".",".",2,"_","_",2,"_","_",2,"_","_",2],[".",".",".",".",".",".",".",".",".",".",".",".",".",3,".",3,".",".",".",".",".",0,".",2,2,".",".","_",".",2,".",2,".",2,".","_","_",".","_","_",".","_","_","."],[".",".",".",".",".",".",".",".",".",".",3,".",".",".",0,".",".",".",".",".",".",".",".",".",".",".",".","_",0,".",".",".",0,".",".","_","_",".","_","_",".","_","_","."],[".",".",".",".",".",".",".",".",".",".",".",".",".",".",".",".",".",".",3,".",".",".",0,".",".",".",".","_",".",".",".",".",".",".",".","_","_",".","_","_",".","_","_","."]],[[".",".",".",".",".","_",".",".",".",".",".","_",".",".",".",".",".","_",".",".",".",".","_",".",".",".",".",0,"_",".",".",".",".",0,"_",".",".",".",".","_",".",".",".",".","."],[".",".",".",0,1,"_",".",".",".",0,1,"_",".",".",".",".",0,"_",".",".",".",".","_",0,".",0,1,".","_",0,".",0,1,".","_",".",".",".",0,"_",".",".",".",".",0],[2,0,2,".",".","_",2,0,2,".",".","_",0,".",0,2,".","_",0,".",0,2,"_",".",2,".",".",".","_",".",2,".",".",".","_",0,".",0,".","_",0,".",0,2,"."],[".",".",".",".",".","_",".",".",".",".",".","_",".",2,".",".",".","_",".",2,".",".","_",".",".",".",".",".","_",".",".",".",".",".","_",".",2,".",".","_",".",2,".",".","."],[0,".",".",".",".","_",".",".",".",".",".","_",".",".",".",".",".","_",".",".",".",".","_",0,".",".",".",".","_",".",".",".",".",".","_",".",".",".",".","_",".",".",".",".","."],[".",".",".",".",".","_",1,".",".",".",".","_",3,".",".",".",".","_",3,".",".",".","_",".",".",".",".",".","_",1,".",".",".",".","_",3,".",".",".","_",3,".",".",".","."]],[[0,".",0,".",0,".",0,".",1,".",1,".",1,".",1,".",0,".",0,".",0,".",".",".",".",".",".",".",".",".",".",".",".",".",".",".",".",".",".",".",".",".",".",".",".",".",".","."],[".",".",".",".",".",".",".",3,".",".",".",".",".",".",".",".",".",".",".",".",".",".",0,".",".",".",".",".",".",".",".",".",0,".",0,".",0,".",0,".",0,".",0,".",0,".",0,"."],[".",2,".",2,".",2,".",".",".",2,".",2,".",2,".",2,".",0,".",0,".",0,".",0,2,".",2,".",2,".",2,".",".",0,".",0,".",0,".",0,".",0,".",0,".",0,".",0],[".",".",".",".",".",".",".",".",0,".",".",".",".",".",".",".",".",".",".",".",".",".",".",".",".",3,".",3,".",3,".",3,".",".",".",".",".",".",".",".",".",".",".",".",".",".",".","."],[0,".",".",".",".",".",".",".",".",".",".",".",".",".",".",".",3,".",".",".",".",".",".",".",".",".",".",".",".",".",".",".",".",".",".",".",".",".",".",".",".",".",".",".",".",".",".","."],[".",".",".",".",".",".",".",".",".",".",".",".",".",".",".",".",".",".",".",".",".",".",".",".",1,".",".",".",".",".",".",".",0,".",".",".",".",".",".",".",3,".",".",".",".",".",".","."]],[[".",".",".",".",".",".",".",".",".",".",".",".",".",".",".",".","."],[".",".",".",".",".",".",".",".",".",".",".",".",".",".",".",".","."],[2,".",2,".",2,".",2,".",2,".",2,".",2,".",2,".",2],[".",2,".",2,".",2,".",2,".",2,".",2,".",2,".",2,"."],[0,".",".",".",".",".",".",".",".",".",".",".",".",".",".",".","."],[".",".",".",".",".",".",".",".",".",".",".",".",".",".",".",".","."]],[[".",".",".",".",".",".",".",".",".",".",".",".",".",".",".",".",".",".",".",".",".",".",".",".",".",".",".",".",".",".",".",".",".",".",".",".",".",".",".",".",".",".",".",".",".",".",".","."],[1,".",".",1,".",".",1,".",".",3,".",".",3,".",".",3,".",".",3,".",".",3,".",".",0,".",".",0,".",".",0,".",".",0,".",".",0,".",".",0,".",".",0,".",".",0,".","."],[".",2,".",".",2,".",".",2,".",".",2,".",".",2,".",".",2,".",".",2,".",".",2,".",".",0,".",".",0,".",".",0,".",".",0,".",".",0,".",".",0,".",".",0,".",".",0,"."],[".",".",2,".",".",2,".",".",2,".",".",2,".",".",2,".",".",2,".",".",2,".",".",2,".",".",0,".",".",0,".",".",0,".",".",0,".",".",0,".",".",0,".",".",0,".",".",0],[0,".",".",".",".",".",".",".",".",0,".",".",".",".",".",".",".",".",".",".",".",".",".",".",".",".",".",".",".",".",".",".",".",".",".",".",".",".",".",".",".",".",".",".",".",".",".","."],[".",".",".",".",".",".",".",".",".",".",".",".",".",".",".",".",".",".",".",".",".",".",".",".",3,".",".",".",".",".",".",".",".",".",".",".",".",".",".",".",".",".",".",".",".",".",".","."]],[[".",".",".",".",".",".",".",".",".",".",".",".",".",".",".",".",".",".",".",".",".",".",".",".",".",".",".",".",".",".",".",".",".",".",".",".",".",".",".","."],[0,".",".",0,".",".",0,".",".",1,".",".",".",".",".",".",".",".",".",".",".",".",".",".",".",".",".",".",".",".",".",".",".",".",".",".",".",".",".","."],[".",2,".",".",2,".",".",2,".",".",2,".",0,".",".",0,".",".",0,".",".",0,".",".",".",".",".",".",".",".",".",".",".",".",".",".",".",".",".","."],[".",".",2,".",".",2,".",".",2,".",".",2,".",2,".",".",2,".",".",2,".",".",2,".",2,".",2,".",2,".",2,".",2,".",2,".",2,".",2,"."],[0,".",".",".",".",".",".",".",".",".",".",".",".",".",0,".",".",0,".",".",0,".",".",0,".",3,".",3,".",3,".",3,".",3,".",3,".",3,".",3],[".",".",".",".",".",".",".",".",".",".",".",".",".",".",".",".",".",".",".",".",".",".",".",".",".",".",".",".",".",".",".",".",".",".",".",".",".",".",".","."]]],"numberofstrings":6,"notes":["E","B","G","D","A","E","B"],"capo":0,"stringnotes":["E4","B3","G3","D3","A2","E2"],"comments":["Stave 1:","Stave 2:","Stave 3:","Stave 4:","Stave 5:","Stave 6:","Stave 7:"],"timing":[[null,null,null,null,null,null,null,null,null,null,null,null,null,null,null,null,null,null,null,null,null,null,null,null],[null,null,null,null,null,null,null,null,null,null,null,null,null,null,null,null,null,null,null,null,null,null,null,null,null,null,null,null,null,null,null,null,null,null,null,null,null,null,null,null,null,null,null,null],["W","W","W","W","W",null,"W","W","W","W","W",null,"W","W","W","W","W",null,"W","W","W","W","W","W","W","W","W","W",null,"W","W","W","W","W",null,"W","W","W","W",null,"W","W","W","W","W"],["W","W","W","W","W","W","W","W","W","W","W","W","W","W","W","W","W","W","W","W","W","W","W","W","W","W","W","W","W","W","W","W","W","W","W","W","W","W","W","W","W","W","W","W","W","W","W","W","W"],["W","W","W","W","W","W","W","W","W","W","W","W","W","W","W","W","W"],["W","W","W","W","W","W","W","W","W","W","W","W","W","W","W","W","W","W","W","W","W","W","W","W","W","W","W","W","W","W","W","W","W","W","W","W","W","W","W","W","W","W","W","W","W","W","W","W"],["W","W","W","W","W","W","W","W","W","W","W","W","W","W","W","W","W","W","W","W","W","W","W","W","W","W","W","W","W","W","W","W","W","W","W","W","W","W","W","W"]],"timingvisible":false,"tabcounter":40,"stave":6,"totalstaves":7,"instrument":"6guitar","selectedtuning":"6_standard","version":"13"}

Member for

5 months 3 weeks
Submitted by Jok on Thu, 2020-05-28 20:52