wilderness call riff

01234567891011121314151617181920212223
E
B
G
D
A
E
B
0 1 2 3 4 5 6 7 8 9 10 11 12 13 14 15 16 17 18 19 20 21 22 23
(/) Slide Up  (\) Slide Down  (h) Hammer On  (p) Pull Off  (b) Bend (r) Release (v) Vibrato

Stave 1:

E|-----------0--|--
B|--0--1--3--1--|--
G|--0--0--0--0--|--
D|--0--2--0--2--|--
A|--2--0--2--3--|--
E|--3--------3--|--

Stave 2:

E|--------------------------0--|--
B|--------------1-----1-----1--|--
G|--2--0--------0-----0-----0--|--
D|--3--2--0-----2-----2-----2--|--
A|--3--3--2--3--3-----3-----3--|--
E|--------3--------3-----3-----|--

							http://www.guitartabcreator.com
Chords

Instruments
{"strings":[[[".",".",".",0,"|"],[0,1,3,1,"|"],[0,0,0,0,"|"],[0,2,0,2,"|"],[2,0,2,3,"|"],[3,".",".",3,"|"]],[[".",".",".",".",".",".",".",".",0,"|"],[".",".",".",".",1,".",1,".",1,"|"],[2,0,".",".",0,".",0,".",0,"|"],[3,2,0,".",2,".",2,".",2,"|"],[3,3,2,3,3,".",3,".",3,"|"],[".",".",3,".",".",3,".",3,".","|"]]],"numberofstrings":6,"notes":["E","B","G","D","A","E","B"],"capo":0,"stringnotes":["E4","B3","G3","D3","A2","E2"],"comments":["Stave 1:","Stave 2:"],"timing":[["W","W","W","W"],["W","W","W","W","W","W","W","W","W"]],"timingvisible":false,"tabcounter":10,"stave":1,"totalstaves":2,"instrument":"6guitar","selectedtuning":"6_standard","version":"13"}

Member for

2 years 11 months
Submitted by john.sklar@gmail.com on Sun, 2020-12-20 14:37