WHERE OR WHEN

Chords

01234567891011121314151617181920212223
E
B
G
D
A
E
B
0 1 2 3 4 5 6 7 8 9 10 11 12 13 14 15 16 17 18 19 20 21 22 23
(/) Slide Up  (\) Slide Down  (h) Hammer On  (p) Pull Off  (b) Bend (r) Release (v) Vibrato

Stave 1:

E|-----11--------------------|--
B|--8--11--9---8-------7--6--|--
G|--7--12--8---8---10--8--7--|--
D|--8--10--10--10------7--6--|--
A|--6------8---10------------|--
E|---------------------7--6--|--

Stave 2:

E|--------------------6--6--|--
B|--7--4-----------6-----6--|--
G|--8--4--------5--------5--|--
D|--6--4-----5-----------5--|--
A|--------6--------------6--|--
E|--7--4--------------------|--

							http://www.guitartabcreator.com
Instruments
{"strings":[[[".",11,".",".",".",".",".","|"],[8,11,9,8,".",7,6,"|"],[7,12,8,8,10,8,7,"|"],[8,10,10,10,".",7,6,"|"],[6,".",8,10,".",".",".","|"],[".",".",".",".",".",7,6,"|"]],[[".",".",".",".",".",".",6,6,"|"],[7,4,".",".",".",6,".",6,"|"],[8,4,".",".",5,".",".",5,"|"],[6,4,".",5,".",".",".",5,"|"],[".",".",6,".",".",".",".",6,"|"],[7,4,".",".",".",".",".",".","|"]]],"numberofstrings":6,"notes":["E","B","G","D","A","E","B"],"capo":0,"stringnotes":["E4","B3","G3","D3","A2","E2"],"comments":["Stave 1:","Stave 2:"],"timing":[["W","W","W","W","W","W","W"],["W","W","W","W","W","W","W","W"]],"timingvisible":false,"tabcounter":9,"stave":1,"totalstaves":2,"instrument":"6guitar","selectedtuning":"6_standard","version":"13"}

Member for

2 years 5 months
Submitted by john.sklar@gmail.com on Mon, 2020-09-14 12:24