WEE SMALL

Chords

01234567891011121314151617181920212223
E
B
G
D
A
E
B
0 1 2 3 4 5 6 7 8 9 10 11 12 13 14 15 16 17 18 19 20 21 22 23
(/) Slide Up  (\) Slide Down  (h) Hammer On  (p) Pull Off  (b) Bend (r) Release (v) Vibrato

Stave 1:

E|-----4-----------------------6-----|--
B|-----6--7--6--4-----4--6-----7--4--|--
G|-----5-----------6-----6--6--7--5--|--
D|-----6-----------------6--6--8--4--|--
A|-----4-----------------------------|--
E|-----------------------6--6-----5--|--

Stave 2:

E|--------------------------------|-----------------------------|-----7--7--7--4--6-----|--
B|--2--4--6--6--------6--7--6--2--|--2--4--6--6--------6--6--4--|--4--7--------4--4--6--|--
G|--3-----5-----6--8--6-----5--3--|--3-----5-----6--8--6--6--5--|--3--6--------4--4--5--|--
D|--3-----6-----7--7--7-----6--3--|--3-----6-----7--7--7--6--4--|--4--5--------4--4--6--|--
A|--4-----4-----8--8--8-----4--4--|--4-----4-----8--8--8--------|--3-----------------5--|--
E|--------------------------------|-----------------------6--5--|-----5--------4--4-----|--

Stave 3:

E|--6--------------|--
B|--6--8--4--3--4--|--
G|--6--7--5--4--5--|--
D|--5--8--3--2--4--|--
A|-----7-----------|--
E|--6-----4--3--4--|--

							http://www.guitartabcreator.com
Instruments
{"strings":[[["_",4,".",".",".",".",".",".",".",6,".","|"],["_",6,7,6,4,".",4,6,".",7,4,"|"],["_",5,".",".",".",6,".",6,6,7,5,"|"],["_",6,".",".",".",".",".",6,6,8,4,"|"],["_",4,".",".",".",".",".",".",".",".",".","|"],["_",".",".",".",".",".",".",6,6,".",5,"|"]],[[".",".",".",".",".",".",".",".",".",".","|",".",".",".",".",".",".",".",".",".","|",".",7,7,7,4,6,".","|"],[2,4,6,6,".",".",6,7,6,2,"|",2,4,6,6,".",".",6,6,4,"|",4,7,".",".",4,4,6,"|"],[3,".",5,".",6,8,6,".",5,3,"|",3,".",5,".",6,8,6,6,5,"|",3,6,".",".",4,4,5,"|"],[3,".",6,".",7,7,7,".",6,3,"|",3,".",6,".",7,7,7,6,4,"|",4,5,".",".",4,4,6,"|"],[4,".",4,".",8,8,8,".",4,4,"|",4,".",4,".",8,8,8,".",".","|",3,".",".",".",".",".",5,"|"],[".",".",".",".",".",".",".",".",".",".","|",".",".",".",".",".",".",".",6,5,"|",".",5,".",".",4,4,".","|"]],[[6,".",".",".",".","|"],[6,8,4,3,4,"|"],[6,7,5,4,5,"|"],[5,8,3,2,4,"|"],[".",7,".",".",".","|"],[6,".",4,3,4,"|"]]],"numberofstrings":6,"notes":["E","B","G","D","A","E","B"],"capo":0,"stringnotes":["E4","B3","G3","D3","A2","E2"],"comments":["Stave 1:","Stave 2:","Stave 3:"],"timing":[[null,"W","W","W","W","W","W","W","W","W","W"],["W","W","W","W","W","W","W","W","W","W","W","W","W","W","W","W","W","W","W","W",null,"W","W","W","W","W","W","W"],["W","W","W","W","W","W"]],"timingvisible":false,"tabcounter":6,"stave":2,"totalstaves":3,"instrument":"6guitar","selectedtuning":"6_standard","version":"13"}

Member for

2 years 10 months
Submitted by john.sklar@gmail.com on Tue, 2020-11-03 14:24