Walk between the raindrops

Chords

01234567891011121314151617181920212223
E
B
G
D
A
E
B
0 1 2 3 4 5 6 7 8 9 10 11 12 13 14 15 16 17 18 19 20 21 22 23
(/) Slide Up  (\) Slide Down  (h) Hammer On  (p) Pull Off  (b) Bend (r) Release (v) Vibrato

Stave 1:

E|--------------------|--------------|-----------------|--------------0--|--------------|--
B|--2--3--2--3--2--3--|--8--8--7--5--|--3--3--3--1--0--|-----3--------1--|--3--5--5--3--|--
G|--4--5--4--5--4--5--|--7-----9--6--|--2-----2--1--1--|--4-----4-----3--|--4--5--4--4--|--
D|--3--4--3--4--3--4--|--9-----8--4--|--4-----4--2--0--|--4--------5--2--|--2--3--3--2--|--
A|--4--5--4--5--4--5--|--7-----9-----|--2-----2--3--2--|--------------3--|--------------|--
E|--------------------|-----------6--|-----------------|--3--------------|--3--5--5--3--|--

Stave 2:

E|-----------------|--
B|--9--8--7--6--5--|--
G|--9--8--7--7--7--|--
D|--9--8--7--6--6--|--
A|--------------7--|--
E|--9--8--7--7--0--|--

							http://www.guitartabcreator.com
Instruments
{"strings":[[[".",".",".",".",".",".","|",".",".",".",".","|",".",".",".",".",".","|",".",".",".",".",0,"|",".",".",".",".","|"],[2,3,2,3,2,3,"|",8,8,7,5,"|",3,3,3,1,0,"|",".",3,".",".",1,"|",3,5,5,3,"|"],[4,5,4,5,4,5,"|",7,".",9,6,"|",2,".",2,1,1,"|",4,".",4,".",3,"|",4,5,4,4,"|"],[3,4,3,4,3,4,"|",9,".",8,4,"|",4,".",4,2,0,"|",4,".",".",5,2,"|",2,3,3,2,"|"],[4,5,4,5,4,5,"|",7,".",9,".","|",2,".",2,3,2,"|",".",".",".",".",3,"|",".",".",".",".","|"],[".",".",".",".",".",".","|",".",".",".",6,"|",".",".",".",".",".","|",3,".",".",".",".","|",3,5,5,3,"|"]],[[".",".",".",".",".","|"],[9,8,7,6,5,"|"],[9,8,7,7,7,"|"],[9,8,7,6,6,"|"],[".",".",".",".",7,"|"],[9,8,7,7,0,"|"]]],"numberofstrings":6,"notes":["E","B","G","D","A","E","B"],"capo":0,"stringnotes":["E4","B3","G3","D3","A2","E2"],"comments":["Stave 1:","Stave 2:"],"timing":[["W","W","W","W","W","W",null,"W","W","W","W",null,"W","W","W","W","W",null,"W","W","W","W","W","W","W","W","W","W"],["W","W","W","W","W",null,"W","W"]],"timingvisible":false,"tabcounter":6,"stave":1,"totalstaves":2,"instrument":"6guitar","selectedtuning":"6_standard","version":"13"}

Member for

2 years 10 months
Submitted by john.sklar@gmail.com on Mon, 2020-11-02 11:14