Someone's Rocking My Dream Boat

Chords

01234567891011121314151617181920212223
E
B
G
D
A
E
B
0 1 2 3 4 5 6 7 8 9 10 11 12 13 14 15 16 17 18 19 20 21 22 23
(/) Slide Up  (\) Slide Down  (h) Hammer On  (p) Pull Off  (b) Bend (r) Release (v) Vibrato

Stave 1:

E|-------------------------------------------------|--
B|-----------------------4--------8---------9---6--|--
G|--3--5--3--------------3--------6---------8---7--|--
D|-----------5--3-----5--5-----8--8-----10--10--6--|--
A|-----------------6-----6--7-----7--8------8---8--|--
E|-------------------------------------------------|--

Stave 2:

E|--------------------------------|--
B|--------4--------5--------4--6--|--
G|--------3--------3--------5--7--|--
D|-----5--5-----5--5-----3--3--6--|--
A|--6-----6--4-----4--------------|--
E|--------------------4-----4--6--|--

							http://www.guitartabcreator.com
Instruments
{"strings":[[[".",".",".",".",".",".",".",".",".",".",".",".",".",".",".","|"],[".",".",".",".",".",".",".",4,".",".",8,".",".",9,6,"|"],[3,5,3,".",".",".",".",3,".",".",6,".",".",8,7,"|"],[".",".",".",5,3,".",5,5,".",8,8,".",10,10,6,"|"],[".",".",".",".",".",6,".",6,7,".",7,8,".",8,8,"|"],[".",".",".",".",".",".",".",".",".",".",".",".",".",".",".","|"]],[[".",".",".",".",".",".",".",".",".",".","|"],[".",".",4,".",".",5,".",".",4,6,"|"],[".",".",3,".",".",3,".",".",5,7,"|"],[".",5,5,".",5,5,".",3,3,6,"|"],[6,".",6,4,".",4,".",".",".",".","|"],[".",".",".",".",".",".",4,".",4,6,"|"]]],"numberofstrings":6,"notes":["E","B","G","D","A","E","B"],"capo":0,"stringnotes":["E4","B3","G3","D3","A2","E2"],"comments":["Stave 1:","Stave 2:"],"timing":[["W","W","W","W","W","W","W","W","W","W","W","W","W","W","W"],["W","W","W","W","W","W","W","W","W","W"]],"timingvisible":false,"tabcounter":11,"stave":1,"totalstaves":2,"instrument":"6guitar","selectedtuning":"6_standard","version":"13"}

Member for

2 years 4 months
Submitted by john.sklar@gmail.com on Sat, 2020-08-01 14:49