SKIN

Chords

01234567891011121314151617181920212223
E
B
G
D
A
E
B
0 1 2 3 4 5 6 7 8 9 10 11 12 13 14 15 16 17 18 19 20 21 22 23
(/) Slide Up  (\) Slide Down  (h) Hammer On  (p) Pull Off  (b) Bend (r) Release (v) Vibrato

Stave 1:

E|--2--2-----------6-----|--9-----------2-----|--
B|--2--2-----------7--7--|--9-----7--6--2--4--|--
G|--3--3-----------6--7--|--9-----6--6--3--3--|--
D|--4--2-----6--8--8--8--|--8-----7--6--4--4--|--
A|--4--4-----8--9--9--9--|--9-----5--4--4--2--|--
E|--2--2-----------------|--9-----------2-----|--

Stave 2:

E|-----------------|--------------|--------------|--
B|--------------1--|--------6-----|--4--3--4--3--|--
G|--------0-----1--|--------6-----|--4--3--4--3--|--
D|--2--3--2-----3--|--6--8--6-----|--6--5--6--5--|--
A|--3--5--3--3--3--|--8--9--8-----|--7--6--7--6--|--
E|--------------1--|--------------|--------------|--

							http://www.guitartabcreator.com
Instruments
{"strings":[[[2,2,"_",".",".",6,".","|",9,"_",".",".",2,".","|"],[2,2,"_",".",".",7,7,"|",9,"_",7,6,2,4,"|"],[3,3,"_",".",".",6,7,"|",9,"_",6,6,3,3,"|"],[4,2,"_",6,8,8,8,"|",8,"_",7,6,4,4,"|"],[4,4,"_",8,9,9,9,"|",9,"_",5,4,4,2,"|"],[2,2,"_",".",".",".",".","|",9,"_",".",".",2,".","|"]],[[".",".",".",".",".","|",".",".",".","_","|",".",".",".",".","|"],[".",".",".",".",1,"|",".",".",6,"_","|",4,3,4,3,"|"],[".",".",0,".",1,"|",".",".",6,"_","|",4,3,4,3,"|"],[2,3,2,".",3,"|",6,8,6,"_","|",6,5,6,5,"|"],[3,5,3,3,3,"|",8,9,8,"_","|",7,6,7,6,"|"],[".",".",".",".",1,"|",".",".",".","_","|",".",".",".",".","|"]]],"numberofstrings":6,"notes":["E","B","G","D","A","E","B"],"capo":0,"stringnotes":["E4","B3","G3","D3","A2","E2"],"comments":["Stave 1:","Stave 2:"],"timing":[["W","W",null,"W","W","W","W",null,"W",null,"W","W","W","W"],["W","W","W","W","W",null,"W","W","W",null,null,"W","W","W","W"]],"timingvisible":false,"tabcounter":16,"stave":1,"totalstaves":2,"instrument":"6guitar","selectedtuning":"6_standard","version":"13"}

Member for

2 years 10 months
Submitted by john.sklar@gmail.com on Mon, 2020-11-09 11:13