once in love with amy

Chords

01234567891011121314151617181920212223
E
B
G
D
A
E
B
0 1 2 3 4 5 6 7 8 9 10 11 12 13 14 15 16 17 18 19 20 21 22 23
(/) Slide Up  (\) Slide Down  (h) Hammer On  (p) Pull Off  (b) Bend (r) Release (v) Vibrato

Stave 1:

E|-----------------------7--------|--
B|--------3--------3--5-----8--7--|--
G|--------4--------4--5-----9--8--|--
D|-----2--2-----3--3--5-----7--7--|--
A|--------------------------------|--
E|--3-----3--4-----4--5-----8--8--|--

Stave 2:

E|-----------------3--------12------10--|--
B|--------3-----------------12--11--10--|--
G|--------4--------4--------12--11--9---|--
D|-----4--4-----4--3-----5--11--10--9---|--
A|--------------------------12------10--|--
E|--3-----3--4-----4--5-----12--10--10--|--

							http://www.guitartabcreator.com
Instruments
{"strings":[[[".",".",".",".",".",".",".",7,".",".","|"],[".",".",3,".",".",3,5,".",8,7,"|"],[".",".",4,".",".",4,5,".",9,8,"|"],[".",2,2,".",3,3,5,".",7,7,"|"],[".",".",".",".",".",".",".",".",".",".","|"],[3,".",3,4,".",4,5,".",8,8,"|"]],[[".",".",".",".",".",3,".",".",12,".",10,"|"],[".",".",3,".",".",".",".",".",12,11,10,"|"],[".",".",4,".",".",4,".",".",12,11,9,"|"],[".",4,4,".",4,3,".",5,11,10,9,"|"],[".",".",".",".",".",".",".",".",12,".",10,"|"],[3,".",3,4,".",4,5,".",12,10,10,"|"]]],"numberofstrings":6,"notes":["E","B","G","D","A","E","B"],"capo":0,"stringnotes":["E4","B3","G3","D3","A2","E2"],"comments":["Stave 1:","Stave 2:"],"timing":[["W","W","W","W","W","W","W","W","W","W"],["W","W","W","W","W","W","W","W","W","W","W"]],"timingvisible":false,"tabcounter":12,"stave":1,"totalstaves":2,"instrument":"6guitar","selectedtuning":"6_standard","version":"13"}

Member for

2 years 5 months
Submitted by john.sklar@gmail.com on Mon, 2020-09-14 10:30