Mirror

Chords

01234567891011121314151617181920212223
E
B
G
D
A
E
B
0 1 2 3 4 5 6 7 8 9 10 11 12 13 14 15 16 17 18 19 20 21 22 23
(/) Slide Up  (\) Slide Down  (h) Hammer On  (p) Pull Off  (b) Bend (r) Release (v) Vibrato

Stave 1:

E|--------------------------------|--
B|-----------------4--------5--4--|--
G|--------4--------4--------5--5--|--
D|--------5-----4--4-----5--5--5--|--
A|-----5--5--2-----2--3-----3--3--|--
E|--3-----3-----------------------|--

Stave 2:

E|--------------------------------------------------|--
B|--0-----0-----3-----------0-----0-----3-----------|--
G|--0--0-----0--4-----4-----0-----------3-----3-----|--
D|--0-----------4--4-----4--2--2-----2--5--5-----5--|--
A|--2-----------2-----------3-----------6-----------|--
E|--3-----------2-----------------------------------|--

							http://www.guitartabcreator.com
Instruments
{"strings":[[[".",".",".",".",".",".",".",".",".",".","|"],[".",".",".",".",".",4,".",".",5,4,"|"],[".",".",4,".",".",4,".",".",5,5,"|"],[".",".",5,".",4,4,".",5,5,5,"|"],[".",5,5,2,".",2,3,".",3,3,"|"],[3,".",3,".",".",".",".",".",".",".","|"]],[[".",".",".",".",".",".",".",".",".",".",".",".",".",".",".",".","|"],[0,".",0,".",3,".",".",".",0,".",0,".",3,".",".",".","|"],[0,0,".",0,4,".",4,".",0,".",".",".",3,".",3,".","|"],[0,".",".",".",4,4,".",4,2,2,".",2,5,5,".",5,"|"],[2,".",".",".",2,".",".",".",3,".",".",".",6,".",".",".","|"],[3,".",".",".",2,".",".",".",".",".",".",".",".",".",".",".","|"]]],"numberofstrings":6,"notes":["E","B","G","D","A","E","B"],"capo":0,"stringnotes":["E4","B3","G3","D3","A2","E2"],"comments":["Stave 1:","Stave 2:"],"timing":[["W","W","W","W","W","W","W","W","W","W"],["W","W","W","W","W","W","W","W","W","W","W","W","W","W","W","W"]],"timingvisible":false,"tabcounter":17,"stave":1,"totalstaves":2,"instrument":"6guitar","selectedtuning":"6_standard","version":"13"}

Member for

2 years 8 months
Submitted by john.sklar@gmail.com on Tue, 2020-10-20 13:05