Heartbeat riff/intro

Chords

01234567891011121314151617181920212223
E
B
G
D
A
E
B
0 1 2 3 4 5 6 7 8 9 10 11 12 13 14 15 16 17 18 19 20 21 22 23
(/) Slide Up  (\) Slide Down  (h) Hammer On  (p) Pull Off  (b) Bend (r) Release (v) Vibrato

Stave 1:

E|-----------------|--------------|--------------|--------------|--------------|--
B|--1--0-----------|--1--0--------|--1--0--------|--1--0--------|--1--0--------|--
G|-----------------|--------------|--------------|--------------|--------------|--
D|-----------2-----|--------2-----|--------0-----|--------0-----|--------2-----|--
A|-----------3-----|--------3-----|--------2-----|--------2-----|--------3-----|--
E|-----------------|--------------|--------3-----|--------3-----|--------------|--

Stave 2:

E|--------------|--
B|--1--0--------|--
G|--------------|--
D|--------2-----|--
A|--------3-----|--
E|--------------|--

Stave 3:

E|--------------|--
B|--1--0--------|--
G|--------------|--
D|--------0-----|--
A|--------2-----|--
E|--------3-----|--

							http://www.guitartabcreator.com
Instruments
{"strings":[[[".",".","_",".","_","|",".",".",".","_","|",".",".",".","_","|",".",".",".","_","|",".",".",".","_","|"],[1,0,"_",".","_","|",1,0,".","_","|",1,0,".","_","|",1,0,".","_","|",1,0,".","_","|"],[".",".","_",".","_","|",".",".",".","_","|",".",".",".","_","|",".",".",".","_","|",".",".",".","_","|"],[".",".","_",2,"_","|",".",".",2,"_","|",".",".",0,"_","|",".",".",0,"_","|",".",".",2,"_","|"],[".",".","_",3,"_","|",".",".",3,"_","|",".",".",2,"_","|",".",".",2,"_","|",".",".",3,"_","|"],[".",".","_",".","_","|",".",".",".","_","|",".",".",3,"_","|",".",".",3,"_","|",".",".",".","_","|"]],[[".",".",".","_","|"],[1,0,".","_","|"],[".",".",".","_","|"],[".",".",2,"_","|"],[".",".",3,"_","|"],[".",".",".","_","|"]],[[".",".",".","_","|"],[1,0,".","_","|"],[".",".",".","_","|"],[".",".",0,"_","|"],[".",".",2,"_","|"],[".",".",3,"_","|"]]],"numberofstrings":6,"notes":["E","B","G","D","A","E","B"],"capo":0,"stringnotes":["E4","B3","G3","D3","A2","E2"],"comments":["Stave 1:","Stave 2:","Stave 3:"],"timing":[["W","W","W","W",null,null,"W","W","W",null,null,"W","W","W",null,null,"W","W","W",null,null,"W","W","W"],["W","W","W","W"],["W","W","W"]],"timingvisible":false,"tabcounter":5,"stave":2,"totalstaves":3,"instrument":"6guitar","selectedtuning":"6_standard","version":"13"}

Member for

2 years 8 months
Submitted by john.sklar@gmail.com on Wed, 2020-09-23 08:50