heart still

Chords

01234567891011121314151617181920212223
E
B
G
D
A
E
B
0 1 2 3 4 5 6 7 8 9 10 11 12 13 14 15 16 17 18 19 20 21 22 23
(/) Slide Up  (\) Slide Down  (h) Hammer On  (p) Pull Off  (b) Bend (r) Release (v) Vibrato

Stave 1:

E|-----6--4--3-----------|--
B|--3--4--4--4--6-----4--|--
G|--3--4--4--5--4-----5--|--
D|--5--4--4--6--6-----5--|--
A|--6-----------5--6--6--|--
E|-----4--4--4-----------|--

Stave 2:

E|---------------------------7--|--
B|--8--11--9--8--9--6--8--8--7--|--
G|--6--12--7--8--7--7--7--7--6--|--
D|--8--10--9--8--9--6--6--8--6--|--
A|--7------8-----8--------6--7--|--
E|-----11-----8-----7--7-----7--|--

							http://www.guitartabcreator.com
Instruments
{"strings":[[[".",6,4,3,".",".",".","|"],[3,4,4,4,6,".",4,"|"],[3,4,4,5,4,".",5,"|"],[5,4,4,6,6,".",5,"|"],[6,".",".",".",5,6,6,"|"],[".",4,4,4,".",".",".","|"]],[[".",".",".",".",".",".",".",".",7,"|"],[8,11,9,8,9,6,8,8,7,"|"],[6,12,7,8,7,7,7,7,6,"|"],[8,10,9,8,9,6,6,8,6,"|"],[7,".",8,".",8,".",".",6,7,"|"],[".",11,".",8,".",7,7,".",7,"|"]]],"numberofstrings":6,"notes":["E","B","G","D","A","E","B"],"capo":0,"stringnotes":["E4","B3","G3","D3","A2","E2"],"comments":["Stave 1:","Stave 2:"],"timing":[["W","W","W","W","W","W","W","W","W","W"],["W","W","W","W","W","W","W","W","W"]],"timingvisible":false,"tabcounter":10,"stave":1,"totalstaves":2,"instrument":"6guitar","selectedtuning":"6_standard","version":"13"}

Member for

2 years 2 months
Submitted by john.sklar@gmail.com on Thu, 2020-05-21 10:07