FULL MOON AND EMPTY ARMS IN A

Chords

01234567891011121314151617181920212223
E
B
G
D
A
E
B
0 1 2 3 4 5 6 7 8 9 10 11 12 13 14 15 16 17 18 19 20 21 22 23
(/) Slide Up  (\) Slide Down  (h) Hammer On  (p) Pull Off  (b) Bend (r) Release (v) Vibrato

Stave 1:

E|--0--5--3--0--------|--------------------------------------|--
B|--2--3--2--2--3--5--|-----------6--5--------5-----------5--|--
G|--2--4--3--2--4--6--|--6--7--6--7-----7--6--7--7--6--4--6--|--
D|--2--2--2--2--3--4--|--7--7--7--7-----7-----7-----4--2--4--|--
A|--0-----------------|--8--8--8-----------------------------|--
E|--------------4--5--|-----------7-----7-----7-----5--3--5--|--

Stave 2:

E|--------------9-----9--|--
B|-----------7-----6-----|--
G|--2--4--6--7-----7--6--|--
D|--2--3--4--7-----6-----|--
A|-----------------7-----|--
E|--2--4--5--7-----------|--

							http://www.guitartabcreator.com
Instruments
{"strings":[[[0,5,3,0,".",".","|",".",".",".",".",".",".",".",".",".",".",".",".","|"],[2,3,2,2,3,5,"|",".",".",".",6,5,".",".",5,".",".",".",5,"|"],[2,4,3,2,4,6,"|",6,7,6,7,".",7,6,7,7,6,4,6,"|"],[2,2,2,2,3,4,"|",7,7,7,7,".",7,".",7,".",4,2,4,"|"],[0,".",".",".",".",".","|",8,8,8,".",".",".",".",".",".",".",".",".","|"],[".",".",".",".",4,5,"|",".",".",".",7,".",7,".",7,".",5,3,5,"|"]],[[".",".",".",".",9,".",9,"|"],[".",".",".",7,".",6,".","|"],[2,4,6,7,".",7,6,"|"],[2,3,4,7,".",6,".","|"],[".",".",".",".",".",7,".","|"],[2,4,5,7,".",".",".","|"]]],"numberofstrings":6,"notes":["E","B","G","D","A","E","B"],"capo":0,"stringnotes":["E4","B3","G3","D3","A2","E2"],"comments":["Stave 1:","Stave 2:"],"timing":[["W","W","W","W","W","W",null,"W","W","W","W","W","W","W","W","W","W","W","W"],["W","W","W","W","W","W","W"]],"timingvisible":false,"tabcounter":8,"stave":1,"totalstaves":2,"instrument":"6guitar","selectedtuning":"6_standard","version":"13"}

Member for

2 years 8 months
Submitted by john.sklar@gmail.com on Sat, 2020-10-24 12:23