25000 opening

01234567891011121314151617181920212223
E
B
G
D
A
E
B
0 1 2 3 4 5 6 7 8 9 10 11 12 13 14 15 16 17 18 19 20 21 22 23
(/) Slide Up  (\) Slide Down  (h) Hammer On  (p) Pull Off  (b) Bend (r) Release (v) Vibrato

Stave 1:

E|--4--2--0-----|--------------------|--
B|--3--3--3--3--|--2--3--5--2-----0--|--
G|--2--2--2--2--|--2--------2--2--1--|--
D|--0--0--0--0--|--2--------2-----2--|--
A|--0--0--0--0--|--4--------0-----2--|--
E|--------------|-----------------0--|--

Stave 2:

E|--2--0--------|-----------------|--
B|--1--1--3--1--|--0--0--3--0--3--|--
G|--0--0--0--0--|--0-----0--0--2--|--
D|--2--2--2--2--|--0-----0--0--0--|--
A|-----3--3--3--|--2-----2--2--0--|--
E|--------------|--3-----3--3-----|--

							http://www.guitartabcreator.com
Chords

Instruments
{"strings":[[[4,2,0,".","|",".",".",".",".",".",".","|"],[3,3,3,3,"|",2,3,5,2,".",0,"|"],[2,2,2,2,"|",2,".",".",2,2,1,"|"],[0,0,0,0,"|",2,".",".",2,".",2,"|"],[0,0,0,0,"|",4,".",".",0,".",2,"|"],[".",".",".",".","|",".",".",".",".",".",0,"|"]],[[2,0,".",".","|",".",".",".",".",".","|"],[1,1,3,1,"|",0,0,3,0,3,"|"],[0,0,0,0,"|",0,".",0,0,2,"|"],[2,2,2,2,"|",0,".",0,0,0,"|"],[".",3,3,3,"|",2,".",2,2,0,"|"],[".",".",".",".","|",3,".",3,3,".","|"]]],"numberofstrings":6,"notes":["E","B","G","D","A","E","B"],"capo":0,"stringnotes":["E4","B3","G3","D3","A2","E2"],"comments":["Stave 1:","Stave 2:"],"timing":[["W","W","W","W","W","W","W","W","W","W","W"],["W","W","W","W",null,"W","W","W","W","W"]],"timingvisible":false,"tabcounter":11,"stave":1,"totalstaves":2,"instrument":"6guitar","selectedtuning":"6_standard","version":"13"}

Member for

2 years 11 months
Submitted by john.sklar@gmail.com on Sat, 2021-02-20 09:24