Immoral Disclosure

Chords

01234567891011121314151617181920212223
E
B
G
D
A
E
B
0 1 2 3 4 5 6 7 8 9 10 11 12 13 14 15 16 17 18 19 20 21 22 23
(/) Slide Up  (\) Slide Down  (h) Hammer On  (p) Pull Off  (b) Bend (r) Release (v) Vibrato

Stave 1:

E|-------------------------------
B|-------------------------------
G|---------6-6-------------------
D|-5-5-----4-4-5-5-5-----6-6-6-6-
A|-3-3-5-5-----3-3-3-5-5-4-4-4-4-
E|-----3-3-----------3-3---------

Stave 2:

E|-------------------------------
B|-------------------------------
G|-----5-------------------------
D|---5-------4-------------------
A|-3-------4---3-3-3-3-----------
E|-------4-------------4-4-4-5-5-

Stave 3:

E|--------
B|--------
G|--------
D|--------
A|-3------
E|------4-

Stave 4:

E|-----------------------------------------------------
B|-----------------------------------------------------
G|-----------------------------------------------------
D|-5-5-------------5---------5-5-------------5---------
A|-3-3-3-3-3-3-3-3-3-3-3-3-3-3-3-3-3-3-3-3-3-3-3-3-3-3-
E|-----------------------------------------------------

Stave 5:

E|-------------------------------------------
B|-------------------------------------------
G|-------------------------------------------
D|-------------------------------------------
A|-4-4-------------4---------4-4-----------5-
E|-2-2-2-2-2-2-2-2-2-2-2-2-2-2-2-2-2-2-2-2-3-

Stave 6:

E|---------------------
B|---------------------
G|---------------------
D|-4-4-4-4-4-4-4-4-4-5-
A|-2-2-2-2-2-2-2-2-2-3-
E|-2-2-2-2-2-2-2-2-2-3-

							http://www.guitartabcreator.com
Instruments
{"title":"Immoral Disclosure","strings":[[[".",".",".",".",".",".",".",".",".",".",".",".",".",".","."],[".",".",".",".",".",".",".",".",".",".",".",".",".",".","."],[".",".",".",".",6,6,".",".",".",".",".",".",".",".","."],[5,5,".",".",4,4,5,5,5,".",".",6,6,6,6],[3,3,5,5,".",".",3,3,3,5,5,4,4,4,4],[".",".",3,3,".",".",".",".",".",3,3,".",".",".","."]],[[".",".",".",".",".",".",".",".",".",".",".",".",".",".","."],[".",".",".",".",".",".",".",".",".",".",".",".",".",".","."],[".",".",5,".",".",".",".",".",".",".",".",".",".",".","."],[".",5,".",".",".",4,".",".",".",".",".",".",".",".","."],[3,".",".",".",4,".",3,3,3,3,".",".",".",".","."],[".",".",".",4,".",".",".",".",".",".",4,4,4,5,5]],[[".","_","."],[".","_","."],[".","_","."],[".","_","."],[3,"_","."],[".","_",4]],[[".",".",".",".",".",".",".",".",".",".",".",".",".",".",".",".",".",".",".",".",".",".",".",".",".","."],[".",".",".",".",".",".",".",".",".",".",".",".",".",".",".",".",".",".",".",".",".",".",".",".",".","."],[".",".",".",".",".",".",".",".",".",".",".",".",".",".",".",".",".",".",".",".",".",".",".",".",".","."],[5,5,".",".",".",".",".",".",5,".",".",".",".",5,5,".",".",".",".",".",".",5,".",".",".","."],[3,3,3,3,3,3,3,3,3,3,3,3,3,3,3,3,3,3,3,3,3,3,3,3,3,3],[".",".",".",".",".",".",".",".",".",".",".",".",".",".",".",".",".",".",".",".",".",".",".",".",".","."]],[[".",".",".",".",".",".",".",".",".",".",".",".",".",".",".",".",".",".",".",".","."],[".",".",".",".",".",".",".",".",".",".",".",".",".",".",".",".",".",".",".",".","."],[".",".",".",".",".",".",".",".",".",".",".",".",".",".",".",".",".",".",".",".","."],[".",".",".",".",".",".",".",".",".",".",".",".",".",".",".",".",".",".",".",".","."],[4,4,".",".",".",".",".",".",4,".",".",".",".",4,4,".",".",".",".",".",5],[2,2,2,2,2,2,2,2,2,2,2,2,2,2,2,2,2,2,2,2,3]],[[".",".",".",".",".",".",".",".",".","."],[".",".",".",".",".",".",".",".",".","."],[".",".",".",".",".",".",".",".",".","."],[4,4,4,4,4,4,4,4,4,5],[2,2,2,2,2,2,2,2,2,3],[2,2,2,2,2,2,2,2,2,3]]],"numberofstrings":6,"notes":["E","B","G","D","A","E","B"],"capo":0,"stringnotes":["E4","B3","G3","D3","A2","E2"],"comments":["Stave 1:","Stave 2:","Stave 3:","Stave 4:","Stave 5:","Stave 6:"],"timing":[["W","W","W","W","W","W","W","W","W","W","W","W","W","W","W"],["W","W","W","W","W","W","W","W","W","W","W","W","W","W","W"],["W",null,"W"],["W","W","W","W","W","W","W","W","W","W","W","W","W","W","W","W","W","W","W","W","W","W","W","W","W","W","W"],["W","W","W","W","W","W","W","W","W","W","W","W","W","W","W","W","W","W","W","W","W","W"],["W","W","W","W","W","W","W","W","W","W"]],"timingvisible":false,"tabcounter":9,"stave":5,"totalstaves":6,"instrument":"6guitar","selectedtuning":"6_standard","version":"13"}

Member for

5 months 1 week
Submitted by JohnnyThorns on Sat, 2020-02-08 10:28