Echochamber

Chords

01234567891011121314151617181920212223
E
B
G
D
A
E
B
0 1 2 3 4 5 6 7 8 9 10 11 12 13 14 15 16 17 18 19 20 21 22 23
(/) Slide Up  (\) Slide Down  (h) Hammer On  (p) Pull Off  (b) Bend (r) Release (v) Vibrato

Stave 1:

E|-----------------------------------|-----------------|-----------------|-
B|-----------------------------------|-----------------|-----------------|-
G|-----------------------------------|-----------------|-----------------|-
D|-------------x-5-5-4-4-4-4-4-4-----|-----------------|-7-7-7-7-8-8-8-8-|-
A|-2-2-x-x-x-x-x-3-3-2-2-2-2-2-2-4-5-|-5-5-5-5-4-4-4-4-|-5-5-5-5-6-6-6-6-|-
E|-0-0-x-x-x-x-------------------2-3-|-3-3-3-3-2-2-2-2-|-----------------|-

Stave 2:

E|-------------------------------------------------------------------------
B|-------------------------------------------------------------------------
G|-------------------------------------------------------------------------
D|-9-9-9-9-9-9-9-9-9--9--9--9--9--9--9--9--7-7-7-7-7-7-7-7-4-4-4-4-4-4-4-4-
A|-7-7-7-7-7-7-7-7-10-10-10-10-10-10-10-10-9-9-9-9-9-9-9-9-5-5-5-5-5-5-5-5-
E|-------------------------------------------------------------------------

Stave 3:

E|---------------------------------------------------------------------------------
B|---------------------------------------------------------------------------------
G|---------------------------------------------------------------------------------
D|-9-9-9-9-9-9-9-9-9--9--9--9--9--9--9--9--7-7-7-7-7-7-7-7-10-10-10-10-10-10-10-10-
A|-7-7-7-7-7-7-7-7-10-10-10-10-10-10-10-10-9-9-9-9-9-9-9-9-12-12-12-12-12-12-12-12-
E|---------------------------------------------------------------------------------

Stave 4:

E|-------------------------------------------------------------------------
B|-------------------------------------------------------------------------
G|-------------------------------------------------------------------------
D|-9-9-9-9-9-9-9-9-9--9--9--9--9--9--9--9--7-7-7-7-7-7-7-7-5-5-5-5-5-5-5-5-
A|-7-7-7-7-7-7-7-7-10-10-10-10-10-10-10-10-9-9-9-9-9-9-9-9-7-7-7-7-6-6-6-6-
E|-------------------------------------------------------------------------

Stave 5:

E|------------------------------------|-----------------------|-
B|------------------------------------|-----------------------|-
G|-----10-9-9-9-----------------------|-----------------------|-
D|-2-2-10-9-9-9-5-5-5-8-8-8-8-8-8-8-8-|-5-5-5-8-8-8-8-3-3-3-3-|-
A|-2-2-8--7-7-7-5-5-5-8-8-8-8-8-8-8-8-|-5-5-5-8-8-8-8-3-3-3-3-|-
E|-0-0----------3-3-3-6-6-6-6-6-6-6-6-|-3-3-3-6-6-6-6-1-1-1-1-|-

Stave 6:

E|---------------------|-----------|-
B|---------------------|-----------|-
G|---------------------|-----------|-
D|---------------------|-----------|-
A|-2-2-x-x-2-5-5-5-7-8-|-8-8-8-7-5-|-
E|-0-0-x-x-0-3-3-3-5-6-|-6-6-6-5-3-|-

							http://www.guitartabcreator.com
Instruments
{"title":"","strings":[[[".",".",".",".",".",".",".",".",".",".",".",".",".",".",".",".",".","|",".",".",".",".",".",".",".",".","|",".",".",".",".",".",".",".",".","|"],[".",".",".",".",".",".",".",".",".",".",".",".",".",".",".",".",".","|",".",".",".",".",".",".",".",".","|",".",".",".",".",".",".",".",".","|"],[".",".",".",".",".",".",".",".",".",".",".",".",".",".",".",".",".","|",".",".",".",".",".",".",".",".","|",".",".",".",".",".",".",".",".","|"],[".",".",".",".",".",".","x5",5,5,4,4,4,4,4,4,".",".","|",".",".",".",".",".",".",".",".","|",7,7,7,7,8,8,8,8,"|"],[2,2,"x2","x2","x2","x2","x3",3,3,2,2,2,2,2,2,4,5,"|",5,5,5,5,4,4,4,4,"|",5,5,5,5,6,6,6,6,"|"],[0,0,"x0","x0","x0","x0",".",".",".",".",".",".",".",".",".",2,3,"|",3,3,3,3,2,2,2,2,"|",".",".",".",".",".",".",".",".","|"]],[[".",".",".",".",".",".",".",".",".",".",".",".",".",".",".",".",".",".",".",".",".",".",".",".",".",".",".",".",".",".",".","."],[".",".",".",".",".",".",".",".",".",".",".",".",".",".",".",".",".",".",".",".",".",".",".",".",".",".",".",".",".",".",".","."],[".",".",".",".",".",".",".",".",".",".",".",".",".",".",".",".",".",".",".",".",".",".",".",".",".",".",".",".",".",".",".","."],[9,9,9,9,9,9,9,9,9,9,9,9,9,9,9,9,7,7,7,7,7,7,7,7,4,4,4,4,4,4,4,4],[7,7,7,7,7,7,7,7,10,10,10,10,10,10,10,10,9,9,9,9,9,9,9,9,5,5,5,5,5,5,5,5],[".",".",".",".",".",".",".",".",".",".",".",".",".",".",".",".",".",".",".",".",".",".",".",".",".",".",".",".",".",".",".","."]],[[".",".",".",".",".",".",".",".",".",".",".",".",".",".",".",".",".",".",".",".",".",".",".",".",".",".",".",".",".",".",".","."],[".",".",".",".",".",".",".",".",".",".",".",".",".",".",".",".",".",".",".",".",".",".",".",".",".",".",".",".",".",".",".","."],[".",".",".",".",".",".",".",".",".",".",".",".",".",".",".",".",".",".",".",".",".",".",".",".",".",".",".",".",".",".",".","."],[9,9,9,9,9,9,9,9,9,9,9,9,9,9,9,9,7,7,7,7,7,7,7,7,10,10,10,10,10,10,10,10],[7,7,7,7,7,7,7,7,10,10,10,10,10,10,10,10,9,9,9,9,9,9,9,9,12,12,12,12,12,12,12,12],[".",".",".",".",".",".",".",".",".",".",".",".",".",".",".",".",".",".",".",".",".",".",".",".",".",".",".",".",".",".",".","."]],[[".",".",".",".",".",".",".",".",".",".",".",".",".",".",".",".",".",".",".",".",".",".",".",".",".",".",".",".",".",".",".","."],[".",".",".",".",".",".",".",".",".",".",".",".",".",".",".",".",".",".",".",".",".",".",".",".",".",".",".",".",".",".",".","."],[".",".",".",".",".",".",".",".",".",".",".",".",".",".",".",".",".",".",".",".",".",".",".",".",".",".",".",".",".",".",".","."],[9,9,9,9,9,9,9,9,9,9,9,9,9,9,9,9,7,7,7,7,7,7,7,7,5,5,5,5,5,5,5,5],[7,7,7,7,7,7,7,7,10,10,10,10,10,10,10,10,9,9,9,9,9,9,9,9,7,7,7,7,6,6,6,6],[".",".",".",".",".",".",".",".",".",".",".",".",".",".",".",".",".",".",".",".",".",".",".",".",".",".",".",".",".",".",".","."]],[[".",".",".",".",".",".",".",".",".",".",".",".",".",".",".",".",".","|",".",".",".",".",".",".",".",".",".",".",".","|"],[".",".",".",".",".",".",".",".",".",".",".",".",".",".",".",".",".","|",".",".",".",".",".",".",".",".",".",".",".","|"],[".",".",10,9,9,9,".",".",".",".",".",".",".",".",".",".",".","|",".",".",".",".",".",".",".",".",".",".",".","|"],[2,2,10,9,9,9,5,5,5,8,8,8,8,8,8,8,8,"|",5,5,5,8,8,8,8,3,3,3,3,"|"],[2,2,8,7,7,7,5,5,5,8,8,8,8,8,8,8,8,"|",5,5,5,8,8,8,8,3,3,3,3,"|"],[0,0,".",".",".",".",3,3,3,6,6,6,6,6,6,6,6,"|",3,3,3,6,6,6,6,1,1,1,1,"|"]],[[".",".",".",".",".",".",".",".",".",".","|",".",".",".",".",".","|"],[".",".",".",".",".",".",".",".",".",".","|",".",".",".",".",".","|"],[".",".",".",".",".",".",".",".",".",".","|",".",".",".",".",".","|"],[".",".",".",".",".",".",".",".",".",".","|",".",".",".",".",".","|"],[2,2,"x2","x2",2,5,5,5,7,8,"|",8,8,8,7,5,"|"],[0,0,"x0","x0",0,3,3,3,5,6,"|",6,6,6,5,3,"|"]]],"numberofstrings":6,"notes":["E","B","G","D","A","E","B"],"capo":0,"stringnotes":["E4","B3","G3","D3","A2","E2"],"comments":["Stave 1:","Stave 2:","Stave 3:","Stave 4:","Stave 5:","Stave 6:"],"timing":[["W","W","W","W","W","W","W","W","W","W","W","W","W","W","W","W","W",null,"W","W","W","W","W","W","W","W",null,"W","W","W","W","W","W","W","W"],["W","W","W","W","W","W","W","W","W","W","W","W","W","W","W","W","W","W","W","W","W","W","W","W","W","W","W","W","W","W","W","W"],["W","W","W","W","W","W","W","W","W","W","W","W","W","W","W","W","W","W","W","W","W","W","W","W","W","W","W","W","W","W","W","W"],["W","W","W","W","W","W","W","W","W","W","W","W","W","W","W","W","W","W","W","W","W","W","W","W","W","W","W","W","W","W","W","W"],["W","W","W","W","W","W","W","W","W","W","W","W","W","W","W","W","W",null,"W","W","W","W","W","W","W","W","W","W","W"],["W","W","W","W","W","W","W","W","W","W",null,"W","W","W","W","W"]],"timingvisible":false,"tabcounter":17,"stave":5,"totalstaves":6,"instrument":"6guitar","selectedtuning":"6_standard","version":"13"}

Member for

5 months 1 week
Submitted by JohnnyThorns on Wed, 2020-02-12 21:36