Crooked Kingdom

Chords

01234567891011121314151617181920212223
E
B
G
D
A
E
B
0 1 2 3 4 5 6 7 8 9 10 11 12 13 14 15 16 17 18 19 20 21 22 23
(/) Slide Up  (\) Slide Down  (h) Hammer On  (p) Pull Off  (b) Bend (r) Release (v) Vibrato

Stave 1:

E|-------------------------------------------------------|-------|-
B|-------------------------------------------------------|-------|-
G|-------------------------------------------------------|-------|-
D|-7-----7-----7-----8-----5-----5-7-----7-----7---------|-----8-|-
A|-5-----5-----5-----6-----3-----3-5-----5-----5---------|-----6-|-
E|---0-0---0-0---0-0---0-0---0-0-----0-0---0-0---0-0-0-0-|-0-0---|-

Stave 2:

E|--------------------------------------------------------
B|--------------------------------------------------------
G|-7-7-7-7-7-7-7-7-7-7-7-10-10-10-10-10-10-10-10-10-10-10-
D|--------------------------------------------------------
A|-5-5-5-5-5-5-5-5-5-5-5-8--8--8--8--8--8--8--8--8--8--8--
E|--------------------------------------------------------

Stave 3:

E|-------------------------------------------------|-------------------------
B|-------------------------------------------------|-------------------------
G|-9-9-9-9-9-9-9-9-9-9-9-9-5-5-5-5-5-5-5-5-5-5-5-5-|-13-13-13-13-13-13-13-13-
D|-------------------------------------------------|-------------------------
A|-7-7-7-7-7-7-7-7-7-7-7-7-3-3-3-3-3-3-3-3-3-3-3-3-|-11-11-11-11-11-11-11-11-
E|-------------------------------------------------|-------------------------

Stave 4:

E|-----0-----------------------|-------|---
B|-----3-----------------------|-------|---
G|-----2-----------------------|-------|---
D|-----0-5-----5-7-----7-----7-|-----8-|---
A|-0-0-0-3-----3-5-----5-----5-|-----6-|---
E|-0-0-0---0-0-----0-0---0-0---|-0-0---|---

Stave 5:

E|-----------------------------------------------|-------------------|-
B|-----------------------------------------------|-------------------|-
G|-----------------------------------------------|-------------------|-
D|-----------------------------------------------|-------------------|-
A|-0-0-0-0-8-8-8-8-8-7-7-7-3-3-3-3-5-5-5-5-5-5-5-|-3-5-5-5-5-1-1-1-1-|-
E|-0-0-0-0-8-8-8-8-8-7-7-7-3-3-3-3/5-5-5-5-5-5-5-|-3/5-5-5-5-1-1-1-1-|-

							http://www.guitartabcreator.com
Instruments
{"title":"Crooked Kingdom","strings":[[[".",".",".",".",".",".",".",".",".",".",".",".",".",".",".",".",".",".",".",".",".",".",".",".",".",".",".","|",".",".",".","|"],[".",".",".",".",".",".",".",".",".",".",".",".",".",".",".",".",".",".",".",".",".",".",".",".",".",".",".","|",".",".",".","|"],[".",".",".",".",".",".",".",".",".",".",".",".",".",".",".",".",".",".",".",".",".",".",".",".",".",".",".","|",".",".",".","|"],[7,".",".",7,".",".",7,".",".",8,".",".",5,".",".",5,7,".",".",7,".",".",7,".",".",".",".","|",".",".",8,"|"],[5,".",".",5,".",".",5,".",".",6,".",".",3,".",".",3,5,".",".",5,".",".",5,".",".",".",".","|",".",".",6,"|"],[".",0,0,".",0,0,".",0,0,".",0,0,".",0,0,".",".",0,0,".",0,0,".",0,0,0,0,"|",0,0,".","|"]],[[".",".",".",".",".",".",".",".",".",".",".",".",".",".",".",".",".",".",".",".",".","."],[".",".",".",".",".",".",".",".",".",".",".",".",".",".",".",".",".",".",".",".",".","."],[7,7,7,7,7,7,7,7,7,7,7,10,10,10,10,10,10,10,10,10,10,10],[".",".",".",".",".",".",".",".",".",".",".",".",".",".",".",".",".",".",".",".",".","."],[5,5,5,5,5,5,5,5,5,5,5,8,8,8,8,8,8,8,8,8,8,8],[".",".",".",".",".",".",".",".",".",".",".",".",".",".",".",".",".",".",".",".",".","."]],[[".",".",".",".",".",".",".",".",".",".",".",".",".",".",".",".",".",".",".",".",".",".",".",".","|",".",".",".",".",".",".",".","."],[".",".",".",".",".",".",".",".",".",".",".",".",".",".",".",".",".",".",".",".",".",".",".",".","|",".",".",".",".",".",".",".","."],[9,9,9,9,9,9,9,9,9,9,9,9,5,5,5,5,5,5,5,5,5,5,5,5,"|",13,13,13,13,13,13,13,13],[".",".",".",".",".",".",".",".",".",".",".",".",".",".",".",".",".",".",".",".",".",".",".",".","|",".",".",".",".",".",".",".","."],[7,7,7,7,7,7,7,7,7,7,7,7,3,3,3,3,3,3,3,3,3,3,3,3,"|",11,11,11,11,11,11,11,11],[".",".",".",".",".",".",".",".",".",".",".",".",".",".",".",".",".",".",".",".",".",".",".",".","|",".",".",".",".",".",".",".","."]],[[".",".",0,".",".",".",".",".",".",".",".",".",".",".","|",".",".",".","|","."],[".",".",3,".",".",".",".",".",".",".",".",".",".",".","|",".",".",".","|","."],[".",".",2,".",".",".",".",".",".",".",".",".",".",".","|",".",".",".","|","."],[".",".",0,5,".",".",5,7,".",".",7,".",".",7,"|",".",".",8,"|","."],[0,0,0,3,".",".",3,5,".",".",5,".",".",5,"|",".",".",6,"|","."],[0,0,0,".",0,0,".",".",0,0,".",0,0,".","|",0,0,".","|","."]],[[".",".",".",".",".",".",".",".",".",".",".",".",".",".",".",".",".",".",".",".",".",".",".",".","|",".",".",".",".",".",".",".",".",".",".","|"],[".",".",".",".",".",".",".",".",".",".",".",".",".",".",".",".",".",".",".",".",".",".",".",".","|",".",".",".",".",".",".",".",".",".",".","|"],[".",".",".",".",".",".",".",".",".",".",".",".",".",".",".",".",".",".",".",".",".",".",".",".","|",".",".",".",".",".",".",".",".",".",".","|"],[".",".",".",".",".",".",".",".",".",".",".",".",".",".",".",".",".",".",".",".",".",".",".",".","|",".",".",".",".",".",".",".",".",".",".","|"],[0,0,0,0,8,8,8,8,8,7,7,7,3,3,3,3,".",5,5,5,5,5,5,5,"|",3,".",5,5,5,5,1,1,1,1,"|"],[0,0,0,0,8,8,8,8,8,7,7,7,3,3,3,3,"/",5,5,5,5,5,5,5,"|",3,"/",5,5,5,5,1,1,1,1,"|"]]],"numberofstrings":6,"notes":["E","B","G","D","A","E","B"],"capo":0,"stringnotes":["E4","B3","G3","D3","A2","E2"],"comments":["Stave 1:","Stave 2:","Stave 3:","Stave 4:","Stave 5:"],"timing":[["W","W","W","W","W","W","W","W","W","W","W","W","W","W","W","W","W","W","W","W","W","W","W","W","W","W","W",null,"W","W","W"],["W","W","W","W","W","W","W","W","W","W","W","W","W","W","W","W","W","W","W","W","W","W"],["W","W","W","W","W","W","W","W","W","W","W","W","W","W","W","W","W","W","W","W","W","W","W","W",null,"W","W","W","W","W","W","W","W"],["W","W","W","W","W","W","W","W","W","W","W","W","W","W","W","W","W","W"],["W","W","W","W","W","W","W","W","W","W","W","W","W","W","W","W",null,"W","W","W","W","W","W","W",null,"W",null,"W","W","W","W","W","W","W","W"]],"timingvisible":false,"tabcounter":36,"stave":4,"totalstaves":5,"instrument":"6guitar","selectedtuning":"6_standard","version":"13"}

Member for

4 months
Submitted by JohnnyThorns on Thu, 2020-02-13 18:41