Behind The Curtain

Chords

01234567891011121314151617181920212223
E
B
G
D
A
E
B
0 1 2 3 4 5 6 7 8 9 10 11 12 13 14 15 16 17 18 19 20 21 22 23
(/) Slide Up  (\) Slide Down  (h) Hammer On  (p) Pull Off  (b) Bend (r) Release (v) Vibrato

Stave 1:

E|-----------------------------------------------------------------------------------------|--
B|-----------------------------------------------------------------------------------------|--
G|-----------3-----2-----------------------------3-----2-----------------------------------|--
D|--------0-----------------0--3-----2--------0-----------7--7--7--6-----------------------|--
A|-----0-----------------0-----------------0--------------5--5--5--4--3--3--3--3--5--5--5--|--
D|--0-----------0-----0-----------0-----0-----------0-----------------3--3--3--3--5--5--5--|--

Stave 2:

E|--------------------------------------------------------|--
B|--------------------------------------------------------|--
G|--------------------------------------------------------|--
D|--------------------------3-----------------------------|--
A|--0--0--0--0--0--0--0--0--1--0--0--0--0--0--0--0--2--3--|--
D|--0--0--0--0--0--0--0--0-----0--0--0--0--0--0--0--2--3--|--

Stave 3:

E|-----------------------------------------------------|--
B|-----------------------------------------------------|--
G|-----------------------------------------------------|--
D|--------------------------3--------------------------|--
A|--0--0--0--0--0--0--0--0--1--0--0--0--0--0--0--0--3--|--
D|--0--0--0--0--0--0--0--0-----0--0--0--0--0--0--0--3--|--

Stave 4:

E|--------------------------------------------------|--
B|--------------------------------------------------|--
G|--------------------------------------------------|--
D|--------------------------3-----------------------|--
A|--0--0--0--0--0--0--0--0--1--5--5--7--3--5--2--3--|--
D|--0--0--0--0--0--0--0--0-----5--5--7--3--5--2--3--|--

Stave 5:

E|--------------------------------------------------|--
B|--------------------------------------------------|--
G|--------------------------------------------------|--
D|--------------------------------------------------|--
A|--0--0--0--0--0--0--0--0--8--8--8--8--8--8--8--8--|--
D|--0--0--0--0--0--0--0--0--8--8--8--8--8--8--8--8--|--

Stave 6:

E|--------------------------------------------------|--
B|--------------------------------------------------|--
G|--------------------------------------------------|--
D|--------------------------------------------------|--
A|--5--5--5--5--5--5--5--5--7--7--7--7--7--7--7--7--|--
D|--5--5--5--5--5--5--5--5--7--7--7--7--7--7--7--7--|--

Stave 7:

E|--------------------------------------------------|--
B|--------------------------------------------------|--
G|--------------------------------------------------|--
D|--------------------------------------------------|--
A|--2--2--2--2--2--2--2--2--7--7--7--7--7--7--7--7--|--
D|--2--2--2--2--2--2--2--2--7--7--7--7--7--7--7--7--|--

							http://www.guitartabcreator.com
Instruments
{"title":"Behind The Curtain","strings":[[[".",".",".",".",".",".",".",".",".",".",".",".",".",".",".",".",".",".",".",".",".",".",".",".",".",".",".",".",".","|"],[".",".",".",".",".",".",".",".",".",".",".",".",".",".",".",".",".",".",".",".",".",".",".",".",".",".",".",".",".","|"],[".",".",".",3,".",2,".",".",".",".",".",".",".",".",".",3,".",2,".",".",".",".",".",".",".",".",".",".",".","|"],[".",".",0,".",".",".",".",".",0,3,".",2,".",".",0,".",".",".",7,7,7,6,".",".",".",".",".",".",".","|"],[".",0,".",".",".",".",".",0,".",".",".",".",".",0,".",".",".",".",5,5,5,4,3,3,3,3,5,5,5,"|"],[0,".",".",".",0,".",0,".",".",".",0,".",0,".",".",".",0,".",".",".",".",".",3,3,3,3,5,5,5,"|"]],[[".",".",".",".",".",".",".",".",".",".",".",".",".",".",".",".",".",".","|"],[".",".",".",".",".",".",".",".",".",".",".",".",".",".",".",".",".",".","|"],[".",".",".",".",".",".",".",".",".",".",".",".",".",".",".",".",".",".","|"],[".",".",".",".",".",".",".",".",3,".",".",".",".",".",".",".",".",".","|"],[0,0,0,0,0,0,0,0,1,0,0,0,0,0,0,0,2,3,"|"],[0,0,0,0,0,0,0,0,".",0,0,0,0,0,0,0,2,3,"|"]],[[".",".",".",".",".",".",".",".",".",".",".",".",".",".",".",".",".","|"],[".",".",".",".",".",".",".",".",".",".",".",".",".",".",".",".",".","|"],[".",".",".",".",".",".",".",".",".",".",".",".",".",".",".",".",".","|"],[".",".",".",".",".",".",".",".",3,".",".",".",".",".",".",".",".","|"],[0,0,0,0,0,0,0,0,1,0,0,0,0,0,0,0,3,"|"],[0,0,0,0,0,0,0,0,".",0,0,0,0,0,0,0,3,"|"]],[[".",".",".",".",".",".",".",".",".",".",".",".",".",".",".",".","|"],[".",".",".",".",".",".",".",".",".",".",".",".",".",".",".",".","|"],[".",".",".",".",".",".",".",".",".",".",".",".",".",".",".",".","|"],[".",".",".",".",".",".",".",".",3,".",".",".",".",".",".",".","|"],[0,0,0,0,0,0,0,0,1,5,5,7,3,5,2,3,"|"],[0,0,0,0,0,0,0,0,".",5,5,7,3,5,2,3,"|"]],[[".",".",".",".",".",".",".",".",".",".",".",".",".",".",".",".","|"],[".",".",".",".",".",".",".",".",".",".",".",".",".",".",".",".","|"],[".",".",".",".",".",".",".",".",".",".",".",".",".",".",".",".","|"],[".",".",".",".",".",".",".",".",".",".",".",".",".",".",".",".","|"],[0,0,0,0,0,0,0,0,8,8,8,8,8,8,8,8,"|"],[0,0,0,0,0,0,0,0,8,8,8,8,8,8,8,8,"|"]],[[".",".",".",".",".",".",".",".",".",".",".",".",".",".",".",".","|"],[".",".",".",".",".",".",".",".",".",".",".",".",".",".",".",".","|"],[".",".",".",".",".",".",".",".",".",".",".",".",".",".",".",".","|"],[".",".",".",".",".",".",".",".",".",".",".",".",".",".",".",".","|"],[5,5,5,5,5,5,5,5,7,7,7,7,7,7,7,7,"|"],[5,5,5,5,5,5,5,5,7,7,7,7,7,7,7,7,"|"]],[[".",".",".",".",".",".",".",".",".",".",".",".",".",".",".",".","|"],[".",".",".",".",".",".",".",".",".",".",".",".",".",".",".",".","|"],[".",".",".",".",".",".",".",".",".",".",".",".",".",".",".",".","|"],[".",".",".",".",".",".",".",".",".",".",".",".",".",".",".",".","|"],[2,2,2,2,2,2,2,2,7,7,7,7,7,7,7,7,"|"],[2,2,2,2,2,2,2,2,7,7,7,7,7,7,7,7,"|"]]],"numberofstrings":6,"notes":["E","B","G","D","A","D"],"capo":0,"stringnotes":["E3","B2","G2","D2","A1","D1"],"comments":["Stave 1:","Stave 2:","Stave 3:","Stave 4:","Stave 5:","Stave 6:","Stave 7:"],"timing":[["W","W","W","W","W","W","W","W","W","W","W","W","W","W","W","W","W","W","W","W","W","W","W","W","W","W","W","W","W"],["W","W","W","W","W","W","W","W","W","W","W","W","W","W","W","W","W","W"],["W","W","W","W","W","W","W","W","W","W","W","W","W","W","W","W","W","W"],["W","W","W","W","W","W","W","W","W","W","W","W","W","W","W","W"],["W","W","W","W","W","W","W","W","W","W","W","W","W","W","W","W"],["W","W","W","W","W","W","W","W","W","W","W","W","W","W","W","W"],["W","W","W","W","W","W","W","W","W","W","W","W","W","W","W","W"]],"timingvisible":false,"tabcounter":17,"stave":6,"totalstaves":7,"instrument":"6guitar","selectedtuning":"6_standard","version":"13"}

Member for

5 months 1 week
Submitted by JohnnyThorns on Sun, 2020-03-15 20:33