Girl From Ipanema

Chords

01234567891011121314151617181920212223
E
B
G
D
A
E
B
0 1 2 3 4 5 6 7 8 9 10 11 12 13 14 15 16 17 18 19 20 21 22 23
(/) Slide Up  (\) Slide Down  (h) Hammer On  (p) Pull Off  (b) Bend (r) Release (v) Vibrato

Stave 1:

E|--3--0--0-----3-----0--0--0--------3-----------3-----3-----------------
B|--1--1--1--3--1-----1--1--1--3-----5--5--5--3--5-----5--5--5--5--3-----
G|--2--2--2--2--2-----2--2--2--2-----4--4--4--4--4-----4--4--4--4--4-----
D|-----------2-----------------2--------3--3--3-----------3--3--3--3-----
A|-----------------------------------------------------------------------
E|--1--------------1-----------------3--------------3--------------------

Stave 2:

E|-----------------0-----------------------------------
B|--6--3--3--3-----1--1--1--1--------1--------x--1--1--
G|--3--3--3--3--5--3--3--3--3--3--2--------2--x--3--3--
D|--3--3--3--3--------2--2--2-----2--------2--x--2--2--
A|-----------------3-----------------------------------
E|--3-----------------------------1-----1-----x--2--2--

Stave 3:

E|--
B|--
G|--
D|--
A|--
E|--

							http://www.guitartabcreator.com
Instruments
{"strings":[[[3,0,0,".",3,".",0,0,0,".","_",3,".",".",".",3,".",3,".",".",".",".","_"],[1,1,1,3,1,".",1,1,1,3,"_",5,5,5,3,5,".",5,5,5,5,3,"_"],[2,2,2,2,2,".",2,2,2,2,"_",4,4,4,4,4,".",4,4,4,4,4,"_"],[".",".",".",2,".",".",".",".",".",2,"_",".",3,3,3,".",".",".",3,3,3,3,"_"],[".",".",".",".",".",".",".",".",".",".","_",".",".",".",".",".",".",".",".",".",".",".","_"],[1,".",".",".",".",1,".",".",".",".","_",3,".",".",".",".",3,".",".",".",".",".","_"]],[[".",".",".",".",".",0,".",".",".",".",".",".",".",".",".",".","."],[6,3,3,3,".",1,1,1,1,".",".",1,".",".","x1",1,1],[3,3,3,3,5,3,3,3,3,3,2,".",".",2,"x2",3,3],[3,3,3,3,".",".",2,2,2,".",2,".",".",2,"x2",2,2],[".",".",".",".",".",3,".",".",".",".",".",".",".",".",".",".","."],[3,".",".",".",".",".",".",".",".",".",1,".",1,".","x1",2,2]],[[],[],[],[],[],[]]],"numberofstrings":6,"notes":["E","B","G","D","A","E","B"],"capo":0,"stringnotes":["E4","B3","G3","D3","A2","E2"],"comments":["Stave 1:","Stave 2:","Stave 3:"],"timing":[["W","W","W","W","W","W","W","W","W","W",null,"W","W","W","W","W","W","W","W","W","W","W"],["W","W","W","W","W","W","W","W","W","W","W","W","W","W","W","W","W"],[]],"timingvisible":false,"tabcounter":0,"stave":2,"totalstaves":3,"instrument":"6guitar","selectedtuning":"6_standard","version":"13"}

Member for

1 week 2 days
Submitted by johnny doe on Wed, 2020-09-16 02:16