Sound will begin in 5 seconds

Hope (Intro)

01234567891011121314151617181920212223
E
B
G
D
A
E
B
0 1 2 3 4 5 6 7 8 9 10 11 12 13 14 15 16 17 18 19 20 21 22 23
Song Science #1: How Pros Use 6 Chords to Write Hit Songs
(/) Slide Up  (\) Slide Down  (h) Hammer On  (p) Pull Off  (b) Bend (r) Release (v) Vibrato

Stave 1:

E|------------------------------------------------------------------------------------
B|------------------------------------------------------------------------------------
G|-------------------------------------------------------------------------------7h9--
D|--0/5/7\5/12\9-----------0/5/7\5/14\7/9--------16--14--12--11-------------7/9-------
A|---------------------------------------------------------------12v------------------
E|------------------------------------------------------------------------------------

Stave 2:

E|-------------------------------------------------------------------------------------
B|------------------------------5--7/8--7--5-----------12--12p10-----------------------
G|--7------------------------4----------------7-------------------12--11---------------
D|-----9--7--9v-----------5-----------------------------------------------12-----9h12--
A|---------------------7---------------------------------------------------------------
E|-------------------------------------------------------------------------------------

Stave 3:

E|-----12--|------14--|------15--|------17--
B|---------|----------|----------|----------
G|--9------|--11------|--12------|--14------
D|---------|----------|----------|----------
A|---------|----------|----------|----------
E|---------|----------|----------|----------

Stave 4:

E|--
B|--
G|--
D|--
A|--
E|--

http://www.guitartabcreator.com
Guitar Tab Creator is intended to store guitar tab created through the tool. It currently does not support in-line text editing. Any text you place in here will be lost. If you need to comment on your tab, please use the "Tab Notes" section located below.