test

Chords

01234567891011121314151617181920212223
E
B
G
D
A
E
B
0 1 2 3 4 5 6 7 8 9 10 11 12 13 14 15 16 17 18 19 20 21 22 23
(/) Slide Up  (\) Slide Down  (h) Hammer On  (p) Pull Off  (b) Bend (r) Release (v) Vibrato

Stave 1:

E|-----------------------------------------------------------------------------------------------------------
B|--------------1--------------------------1-----------------------------1-----------------------------1-----
G|--------2-----------2--------0--2-----2-----2--------------------2-----------2--------0--2--------2-----2--
D|--0-----------------------0--------0-----------------------0-----------------------0-----------0-----------
A|-----------------------------------------------------------------------------------------------------------
E|-----------------------------------------------------------------------------------------------------------

Stave 2:

E|----------------------------------------------------------------------------------------------------------------
B|-------------4-----------------------------------6--------------------------4-----------------------------6-----
G|--------2/7--------7--------5--7--8--------7--8-----8--------------------7--------7--------5--7--------8-----8--
D|--0----------------------0--------------0--------------------------0--------------------0-----------0-----------
A|----------------------------------------------------------------------------------------------------------------
E|----------------------------------------------------------------------------------------------------------------

Stave 3:

E|----------------------------------------------------------------------------------------------------------------------------------
B|-----------------8--------------------------------10-------------------------------11-------------------------------------13------
G|--------8/11-----------11--------9--11--------12------12--------------------11/14---------14--------12--14--------14--15------15--
D|--0---------------------------0------------0--------------------------0--------------------------0-------------0------------------
A|----------------------------------------------------------------------------------------------------------------------------------
E|----------------------------------------------------------------------------------------------------------------------------------

Stave 4:

E|---------------------------------------------------------------------------------------------------------------------------------------------------------------
B|---------------------------------------------------------------------------------------------------------------------------------------------------------------
G|-----14--15-----12--14-----10--12-----9--10--7--9------/14/15-----12--14-----10--12-----0-----14--15--12--14------/14/15--0--12--14--0--10--12--0--9--10--7--9/
D|---------------------------------------------------------------------------------------------------------------------------------------------------------------
A|---------------------------------------------------------------------------------------------------------------------------------------------------------------
E|---------------------------------------------------------------------------------------------------------------------------------------------------------------

Stave 5:

E|--------------------------------------------------------------------------------------------------------------------------------------------
B|--------------------------------------------------------------------------------------------------------------------------------------------
G|--/14------------12-------------------14------------12-------------------14------------12-------------------14------------12----------------
D|----------15------------14-----12------------15------------14-----12------------15------------14-----12------------15------------15-----14--
A|--------------------------------------------------------------------------------------------------------------------------------------------
E|--------------------------------------------------------------------------------------------------------------------------------------------

Stave 6:

E|---------------------------------------------------------------------------------------------------------------------------------------------------
B|---------------------------------------------------------------------------------------------------------------------------------------------------
G|----------14------------12-------------------14------------12-------------------14------------12-------------------14------------12-----15-----14--
D|--12--12---------15------------14-----12------------15------------14-----12------------15------------14-----12------------15-----------------------
A|---------------------------------------------------------------------------------------------------------------------------------------------------
E|---------------------------------------------------------------------------------------------------------------------------------------------------

Stave 7:

E|----------------------------------------------------------------------------------------------------------------------------------------------------------------
B|----------------------------------------------------------------------------------------------------------------------------------------------------------------
G|----------14-------------12---------------------14-------------12---------------------14-------------12---------------------14-------------12-------------------
D|--12--12---------15--15---------14--14--12--12---------15--15---------14--14--12--12---------15--15---------14--14--12--12---------15--15---------15-----14-----
A|----------------------------------------------------------------------------------------------------------------------------------------------------------------
E|----------------------------------------------------------------------------------------------------------------------------------------------------------------

Stave 8:

E|-----------------------------------------------------------------------------------------------------------------------------------------------------------
B|-----------------------------------------------------------------------------------------------------------------------------------------------------------
G|----------14-------------12-------------------14------------12-------------------14------------12-------------------14------------12-----------------------
D|--12--12---------15--15---------14-----12------------15------------14-----12------------15------------14-----12------------15------------15-----14-----12--
A|-----------------------------------------------------------------------------------------------------------------------------------------------------------
E|-----------------------------------------------------------------------------------------------------------------------------------------------------------

Stave 9:

E|-------------------------------------------------------------_---------------------------------------------------------------------------------------------------------
B|-------------------------------------------------------------_---------------------------------------------------------------------------------------------------------
G|-------------------------------------------------------------_---------------------------------------------------------------------------------------------------------
D|--12--12v-----0-----10-----12-----0--13--0--12--0-----15--0--14--0-----12b13b12--12v--0--10--12-----0--13--0--12--0-----0--15--0--14-----12/16-----12--0-----10-----12--
A|-------------------------------------------------------------_---------------------------------------------------------------------------------------------------------
E|-------------------------------------------------------------_---------------------------------------------------------------------------------------------------------

Stave 10:

E|--------------------------------------------------------------------------------------
B|--------------------------------------------------------------------------------------
G|--------------------------------------------------------------------------------------
D|--0--13--0--12-----0--8--0--10--7-----7-----0--5--7--0--8--0--7--0--2--3--2--0--------
A|--------------------------------------------------------------------------------------
E|--------------------------------------------------------------------------------------

							http://www.guitartabcreator.com
Instruments
{"strings":[[[".",".",".",".",".",".",".",".",".",".",".",".",".",".",".",".",".",".",".",".",".",".",".",".",".",".",".",".",".",".",".",".",".",".","."],[".",".",".",".",1,".",".",".",".",".",".",".",".",1,".",".",".",".",".",".",".",".",".",1,".",".",".",".",".",".",".",".",".",1,"."],[".",".",2,".",".",".",2,".",".",0,2,".",2,".",2,".",".",".",".",".",".",2,".",".",".",2,".",".",0,2,".",".",2,".",2],[0,".",".",".",".",".",".",".",0,".",".",0,".",".",".",".",".",".",".",0,".",".",".",".",".",".",".",0,".",".",".",0,".",".","."],[".",".",".",".",".",".",".",".",".",".",".",".",".",".",".",".",".",".",".",".",".",".",".",".",".",".",".",".",".",".",".",".",".",".","."],[".",".",".",".",".",".",".",".",".",".",".",".",".",".",".",".",".",".",".",".",".",".",".",".",".",".",".",".",".",".",".",".",".",".","."]],[[".",".",".",".",".",".",".",".",".",".",".",".",".",".",".",".",".",".",".",".",".",".",".",".",".",".",".",".",".",".",".",".",".",".",".",".",".","."],[".",".",".",".",".",4,".",".",".",".",".",".",".",".",".",".",".",6,".",".",".",".",".",".",".",".",4,".",".",".",".",".",".",".",".",".",6,"."],[".",".",2,"/",7,".",".",7,".",".",5,7,8,".",".",7,8,".",8,".",".",".",".",".",".",7,".",".",7,".",".",5,7,".",".",8,".",8],[0,".",".",".",".",".",".",".",".",0,".",".",".",".",0,".",".",".",".",".",".",".",".",0,".",".",".",".",".",".",0,".",".",".",0,".",".","."],[".",".",".",".",".",".",".",".",".",".",".",".",".",".",".",".",".",".",".",".",".",".",".",".",".",".",".",".",".",".",".",".",".",".",".",".",".","."],[".",".",".",".",".",".",".",".",".",".",".",".",".",".",".",".",".",".",".",".",".",".",".",".",".",".",".",".",".",".",".",".",".",".",".",".",".","."]],[[".",".",".",".",".",".",".",".",".",".",".",".",".",".",".",".",".",".",".",".",".",".",".",".",".",".",".",".",".",".",".",".",".",".",".",".",".",".",".","."],[".",".",".",".",".",".",8,".",".",".",".",".",".",".",".",".",10,".",".",".",".",".",".",".",".",".",".",11,".",".",".",".",".",".",".",".",".",".",13,"."],[".",".",8,"/",11,".",".",".",11,".",".",9,11,".",".",12,".",12,".",".",".",".",".",".",11,"/",14,".",".",14,".",".",12,14,".",".",14,15,".",15],[0,".",".",".",".",".",".",".",".",".",0,".",".",".",0,".",".",".",".",".",".",".",0,".",".",".",".",".",".",".",".",0,".",".",".",0,".",".",".","."],[".",".",".",".",".",".",".",".",".",".",".",".",".",".",".",".",".",".",".",".",".",".",".",".",".",".",".",".",".",".",".",".",".",".",".",".",".",".",".","."],[".",".",".",".",".",".",".",".",".",".",".",".",".",".",".",".",".",".",".",".",".",".",".",".",".",".",".",".",".",".",".",".",".",".",".",".",".",".",".","."]],[[".",".",".",".",".",".",".",".",".",".",".",".",".","_",".",".",".",".",".",".",".",".",".",".",".",".",".",".",".",".",".",".",".",".",".",".",".",".",".",".",".",".",".",".",".",".",".",".",".",".","."],[".",".",".",".",".",".",".",".",".",".",".",".",".","_",".",".",".",".",".",".",".",".",".",".",".",".",".",".",".",".",".",".",".",".",".",".",".",".",".",".",".",".",".",".",".",".",".",".",".",".","."],[".",14,15,".",12,14,".",10,12,".",9,10,7,9,".",".","/",14,"/",15,".",12,14,".",10,12,".",0,".",14,15,12,14,".",".","/",14,"/",15,0,12,14,0,10,12,0,9,10,7,9,"/"],[".",".",".",".",".",".",".",".",".",".",".",".",".","_",".",".",".",".",".",".",".",".",".",".",".",".",".",".",".",".",".",".",".",".",".",".",".",".",".",".",".",".",".",".",".",".",".",".",".",".","."],[".",".",".",".",".",".",".",".",".",".",".",".",".","_",".",".",".",".",".",".",".",".",".",".",".",".",".",".",".",".",".",".",".",".",".",".",".",".",".",".",".",".",".",".",".",".",".",".",".",".","."],[".",".",".",".",".",".",".",".",".",".",".",".",".","_",".",".",".",".",".",".",".",".",".",".",".",".",".",".",".",".",".",".",".",".",".",".",".",".",".",".",".",".",".",".",".",".",".",".",".",".","."]],[[".",".",".",".",".",".",".",".",".",".",".",".",".",".",".",".",".",".",".",".",".",".",".",".",".",".",".",".",".",".",".",".",".",".",".",".",".",".",".","."],[".",".",".",".",".",".",".",".",".",".",".",".",".",".",".",".",".",".",".",".",".",".",".",".",".",".",".",".",".",".",".",".",".",".",".",".",".",".",".","."],["/",14,".",".",".",12,".",".",".",".",".",14,".",".",".",12,".",".",".",".",".",14,".",".",".",12,".",".",".",".",".",14,".",".",".",12,".",".",".","."],[".",".",".",15,".",".",".",14,".",12,".",".",".",15,".",".",".",14,".",12,".",".",".",15,".",".",".",14,".",12,".",".",".",15,".",".",".",15,".",14],[".",".",".",".",".",".",".",".",".",".",".",".",".",".",".",".",".",".",".",".",".",".",".",".",".",".",".",".",".",".",".",".",".",".",".",".",".",".",".","."],[".",".",".",".",".",".",".",".",".",".",".",".",".",".",".",".",".",".",".",".",".",".",".",".",".",".",".",".",".",".",".",".",".",".",".",".",".",".",".","."]],[[".",".",".",".",".",".",".",".",".",".",".",".",".",".",".",".",".",".",".",".",".",".",".",".",".",".",".",".",".",".",".",".",".",".",".",".",".",".",".",".","."],[".",".",".",".",".",".",".",".",".",".",".",".",".",".",".",".",".",".",".",".",".",".",".",".",".",".",".",".",".",".",".",".",".",".",".",".",".",".",".",".","."],[".",".",14,".",".",".",12,".",".",".",".",".",14,".",".",".",12,".",".",".",".",".",14,".",".",".",12,".",".",".",".",".",14,".",".",".",12,".",15,".",14],[12,12,".",".",15,".",".",".",14,".",12,".",".",".",15,".",".",".",14,".",12,".",".",".",15,".",".",".",14,".",12,".",".",".",15,".",".",".",".",".","."],[".",".",".",".",".",".",".",".",".",".",".",".",".",".",".",".",".",".",".",".",".",".",".",".",".",".",".",".",".",".",".",".",".",".",".",".",".",".",".",".","."],[".",".",".",".",".",".",".",".",".",".",".",".",".",".",".",".",".",".",".",".",".",".",".",".",".",".",".",".",".",".",".",".",".",".",".",".",".",".",".",".","."]],[[".",".",".",".",".",".",".",".",".",".",".",".",".",".",".",".",".",".",".",".",".",".",".",".",".",".",".",".",".",".",".",".",".",".",".",".",".",".",".",".",".","."],[".",".",".",".",".",".",".",".",".",".",".",".",".",".",".",".",".",".",".",".",".",".",".",".",".",".",".",".",".",".",".",".",".",".",".",".",".",".",".",".",".","."],[".",".",14,".",".",".",12,".",".",".",".",".",14,".",".",".",12,".",".",".",".",".",14,".",".",".",12,".",".",".",".",".",14,".",".",".",12,".",".",".",".","."],[12,12,".",".",15,15,".",".",14,14,12,12,".",".",15,15,".",".",14,14,12,12,".",".",15,15,".",".",14,14,12,12,".",".",15,15,".",".",15,".",14,"."],[".",".",".",".",".",".",".",".",".",".",".",".",".",".",".",".",".",".",".",".",".",".",".",".",".",".",".",".",".",".",".",".",".",".",".",".",".",".",".",".",".","."],[".",".",".",".",".",".",".",".",".",".",".",".",".",".",".",".",".",".",".",".",".",".",".",".",".",".",".",".",".",".",".",".",".",".",".",".",".",".",".",".",".","."]],[[".",".",".",".",".",".",".",".",".",".",".",".",".",".",".",".",".",".",".",".",".",".",".",".",".",".",".",".",".",".",".",".",".",".",".",".",".",".",".",".",".",".","."],[".",".",".",".",".",".",".",".",".",".",".",".",".",".",".",".",".",".",".",".",".",".",".",".",".",".",".",".",".",".",".",".",".",".",".",".",".",".",".",".",".",".","."],[".",".",14,".",".",".",12,".",".",".",".",".",14,".",".",".",12,".",".",".",".",".",14,".",".",".",12,".",".",".",".",".",14,".",".",".",12,".",".",".",".",".","."],[12,12,".",".",15,15,".",".",14,".",12,".",".",".",15,".",".",".",14,".",12,".",".",".",15,".",".",".",14,".",12,".",".",".",15,".",".",".",15,".",14,".",12],[".",".",".",".",".",".",".",".",".",".",".",".",".",".",".",".",".",".",".",".",".",".",".",".",".",".",".",".",".",".",".",".",".",".",".",".",".",".",".",".",".",".","."],[".",".",".",".",".",".",".",".",".",".",".",".",".",".",".",".",".",".",".",".",".",".",".",".",".",".",".",".",".",".",".",".",".",".",".",".",".",".",".",".",".",".","."]],[[".",".",".",".",".",".",".",".",".",".",".",".",".",".",".",".",".",".","_",".",".",".",".",".",".",".",".",".",".",".",".",".",".",".",".",".",".",".",".",".",".",".",".",".",".",".",".",".",".",".",".",".","."],[".",".",".",".",".",".",".",".",".",".",".",".",".",".",".",".",".",".","_",".",".",".",".",".",".",".",".",".",".",".",".",".",".",".",".",".",".",".",".",".",".",".",".",".",".",".",".",".",".",".",".",".","."],[".",".",".",".",".",".",".",".",".",".",".",".",".",".",".",".",".",".","_",".",".",".",".",".",".",".",".",".",".",".",".",".",".",".",".",".",".",".",".",".",".",".",".",".",".",".",".",".",".",".",".",".","."],[12,12,"v",".",0,".",10,".",12,".",0,13,0,12,0,".",15,0,14,0,".",12,"b",13,"b",12,12,"v",0,10,12,".",0,13,0,12,0,".",0,15,0,14,".",12,"/",16,".",12,0,".",10,".",12],[".",".",".",".",".",".",".",".",".",".",".",".",".",".",".",".",".",".","_",".",".",".",".",".",".",".",".",".",".",".",".",".",".",".",".",".",".",".",".",".",".",".",".",".",".",".",".",".",".",".",".",".","."],[".",".",".",".",".",".",".",".",".",".",".",".",".",".",".",".",".",".","_",".",".",".",".",".",".",".",".",".",".",".",".",".",".",".",".",".",".",".",".",".",".",".",".",".",".",".",".",".",".",".",".",".","."]],[[".",".",".",".",".",".",".",".",".",".",".",".",".",".",".",".",".",".",".",".",".",".",".",".",".",".","."],[".",".",".",".",".",".",".",".",".",".",".",".",".",".",".",".",".",".",".",".",".",".",".",".",".",".","."],[".",".",".",".",".",".",".",".",".",".",".",".",".",".",".",".",".",".",".",".",".",".",".",".",".",".","."],[0,13,0,12,".",0,8,0,10,7,".",7,".",0,5,7,0,8,0,7,0,2,3,2,0,".","."],[".",".",".",".",".",".",".",".",".",".",".",".",".",".",".",".",".",".",".",".",".",".",".",".",".",".","."],[".",".",".",".",".",".",".",".",".",".",".",".",".",".",".",".",".",".",".",".",".",".",".",".",".",".","."]]],"numberofstrings":6,"notes":["E","B","G","D","A","E","B"],"capo":0,"stringnotes":["E4","B3","G3","D3","A2","E2"],"comments":["Stave 1:","Stave 2:","Stave 3:","Stave 4:","Stave 5:","Stave 6:","Stave 7:","Stave 8:","Stave 9:","Stave 10:"],"timing":[[null,null,null,null,null,null,null,null,null,null,null,null,null,null,null,null,null,null,null,null,null,null,null,null,null,null,null,null,null,null,null,null,null,null,null,null,null,null,null,null,null,null,null,null,null,"W","W","W"],[null,null,null,null,null,null,null,null,null,null,null,null,null,null,null,null,null,null,null,null,null,null,null,null,null,null,null,null,null,null,null,null,null,null,null,null,null,null,null,null,null,"W"],[null,null,null,null,null,null,null,null,null,null,null,null,null,null,null,null,null,null,null,null,null,null,null,null,null,null,null,null,null,null,null,null,null,null,null,null,null,null,null,null,null,"W"],[null,null,null,null,null,null,null,null,null,null,null,null,null,null,null,null,null,null,null,null,null,null,null,null,null,null,null,null,null,null,null,null,null,null,null,null,null,null,null,null,null,"W"],[null,null,null,null,null,null,null,null,null,null,null,null,null,null,null,null,null,null,null,null,null,null,null,null,null,null,null,null,null,null,null,null,null,"W","W","W","W","W","W","W","W","W","W","W","W","W","W","W",null,"W",null,"W","W","W",null,"W","W",null,"W","W","W","W","W",null,"W","W","W","W","W","W","W"],[null,null,null,null,null,null,null,null,null,null,null,null,null,null,null,null,null,null,null,null,null,null,null,null,null,null,null,null,null,null,null,null,null,null,null,null,null,null,null,null,null,null,null,null,null,null,null,null,null,null,null,null,null,null,null,null,null,null,null,null,null,null,null,"W",null,null,null,null,null,null,null,null,null,null,null,null,null,null,null,null,null,null,"W","W",null,null,null,null,null,null,null,null,null,null,null,null,null,null,null,null,null,null,null,"W"],[null,null,null,null,null,null,null,null,null,null,null,null,null,null,null,null,null,null,null,null,null,null,null,null,null,null,null,null,null,null,null,null,null,null,null,null,null,null,null,null,null,null,null,null,"W"],[null,"W",null,"W","W",null,"W","W","W","W","W",null,"W",null,null,null,null,null,null,null,null,null,null,null,null,null,null,null,null,null,null,null,null,null,null,null,null,null,null,null,null,"W",null,null,"W"],[null,"W",null,null,"W",null,"W",null,"W","W",null,"W",null,null,"W","W","W","W","W",null,"W",null,"W","W",null,null,null,"W",null,null,null,"W","W",null,"W","W","W","W",null,null,null,null,"W","W",null,null,null,null,"W","W","W",null,"W","W"],[null,"W","W","W","W",null,"W","W","W","W","W","W","W","W","W","W","W","W","W","W","W",null,null,null,null,null,null,"W"]],"timingvisible":false,"tabcounter":27,"stave":9,"totalstaves":10,"instrument":"6guitar","selectedtuning":"6_standard","version":"13"}

Member for

1 month
Submitted by JohnDeaux2 on Thu, 2020-09-24 04:50