Sound will begin in 5 seconds

June Oak slide

01234567891011121314151617181920212223
E
B
G
D
A
E
B
0 1 2 3 4 5 6 7 8 9 10 11 12 13 14 15 16 17 18 19 20 21 22 23
Song Science #1: How Pros Use 6 Chords to Write Hit Songs
(/) Slide Up  (\) Slide Down  (h) Hammer On  (p) Pull Off  (b) Bend (r) Release (v) Vibrato

Stave 1:

E|--12v--\9/12--12--9--7--5--7/7--7--7--5-------------------------------------3--------------------------
B|-----------------------------------------8--7--5--7--5--3/5--5--5--5--3--5-----5--5--3-----------3--0--
G|----------------------------------------------------------------------------------------3--1--3--------
D|-------------------------------------------------------------------------------------------------------
B|-------------------------------------------------------------------------------------------------------
E|-------------------------------------------------------------------------------------------------------

Stave 2:

E|---------------------------------------------------------------------------------------------------
B|--0--5/8\7/8--0/10--8/10\8--7--5--0--8/10\8--7--5--7--5--3/5--5--5--5--7--5------------------------
G|-----------------------------------------------------------------------------6-----6-----6---------
D|--------------------------------------------------------------------------------7-----7-----5--7v--
B|---------------------------------------------------------------------------------------------------
E|---------------------------------------------------------------------------------------------------

Stave 3:

E|-----------------------------------------------------------5--7v--7--7--7--5-----------7--7--7--5-----
B|--------5--7--5--------------5--7--5-----------5--7--5--7---------------------8--7--5--------------8--
G|-----6-----------6--------6-----------------6---------------------------------------------------------
D|--7-----------------7--7--------------7--7------------------------------------------------------------
B|------------------------------------------------------------------------------------------------------
E|------------------------------------------------------------------------------------------------------

Stave 4:

E|-------------------
B|--7--5--7--5--3/5--
G|-------------------
D|-------------------
B|-------------------
E|-------------------

http://www.guitartabcreator.com
Guitar Tab Creator is intended to store guitar tab created through the tool. It currently does not support in-line text editing. Any text you place in here will be lost. If you need to comment on your tab, please use the "Tab Notes" section located below.