Sound will begin in 5 seconds

21grams

01234567891011121314151617181920212223
E
B
G
D
A
E
B
0 1 2 3 4 5 6 7 8 9 10 11 12 13 14 15 16 17 18 19 20 21 22 23
Song Science #1: How Pros Use 6 Chords to Write Hit Songs
(/) Slide Up  (\) Slide Down  (h) Hammer On  (p) Pull Off  (b) Bend (r) Release (v) Vibrato

Stave 1:

E|-----------------------------------------|----
B|-----------------------------------------|----
G|-----------------------------------------|----
D|--6--2-----2-----------------------------|----
A|--------6-----6--2--6--2-----2-----------|----
E|--------------------------6-----6--2--0--|--0h

Stave 2:

E|----------------------------------------------------------------|--
B|----------------------------------------------------------------|--
G|----------------------------------------------------------------|--
D|-------------------------------------------6--3-----------------|--
A|-------------------------------------------------6--3-----------|--
E|--0--0--0--0--0--0--3/6--0--0--0--0--0--0--------------6--3--0--|--

Stave 3:

E|----------------------------------------------------------------------------------------------------
B|----------------------------------------------------------------------------------------------------
G|----------------------------------3-----------------3-----------------2-----------------2-----------
D|----------------------------------------------------------------------------------------------------
A|--5----------------5--4--1--1--1-----1--1--1--1--1-----1--1--0--0--0-----0--0--0--0--0-----0--0-----
E|-------------------------------------------------------------------------------------------------0--

Stave 4:

E|-----------------------------------------------------------------------
B|-----------------------------------------------------------------------
G|-----------------------------------------------------------------------
D|------------------------------------------------13--11-----------------
A|--------------------------------------------------------13--11---------
E|--0--0--0--13--0--0--0--13v--0--0--0--13--0--0------------------13--0--

Stave 5:

E|----------------------------------------|--
B|----------------------------------------|--
G|----------------------------------------|--
D|----------------------------------------|--
A|----------------------------------------|--
E|--5--5--5--5--5--5--5\3--3--3--3--3--3--|--

http://www.guitartabcreator.com
Guitar Tab Creator is intended to store guitar tab created through the tool. It currently does not support in-line text editing. Any text you place in here will be lost. If you need to comment on your tab, please use the "Tab Notes" section located below.