Trilobyte Bass

Chords

01234567891011121314151617181920212223
E
B
G
D
A
E
B
0 1 2 3 4 5 6 7 8 9 10 11 12 13 14 15 16 17 18 19 20 21 22 23
(/) Slide Up  (\) Slide Down  (h) Hammer On  (p) Pull Off  (b) Bend (r) Release (v) Vibrato

Stave 1:

Eb|------------------------------------------------------------------------
Bb|----------3----------------3h5-----3--------3----------------3h5-----3--
F |--3h5--------5-----3h5----------------5--------5-----3h5----------------
C |------------------------------------------------------------------------

Stave 2:

Eb|---------------------------------------------------------
Bb|--7--7--5h7p5--5--5--3h5p3--3--3-----3-------------------
F |----------------------------------5-----5--5--5--5--3h5--
C |---------------------------------------------------------

Stave 3:

Eb|--------------------------------------------------------
Bb|--7--7--5h7p5--5--5--3h5p3--3--3-----3------------------
F |----------------------------------5-----5--5--5--5/6\5--
C |--------------------------------------------------------

Stave 4:

Eb|------------------------------------------------------
Bb|--7--7--5h7p5--5--5--3h5p3--3-----3-------------------
F |-------------------------------5-----5--3--3--3--6\5--
C |------------------------------------------------------

Stave 5:

Eb|-------------------------------------------------------
Bb|--7--7--5h7p5--5--5--3h5p3--3--3-----3-----5--5--6--6--
F |----------------------------------5-----5--------------
C |-------------------------------------------------------

Stave 6:

Eb|-----------------------------------------------------------------------------------------
Bb|---------------------------------3h5p3--5--3---------------------------------3h5p3--5b6--
F |--5--5--5p4p3--3--3h4h5--5--3h5---------------5--5--5p4p3--3--3h4h5--5--3h5--------------
C |-----------------------------------------------------------------------------------------

Stave 7:

Eb|-----------------------------------------------------------------------------------------
Bb|---------------------------------3h5p3--5--3-------------3---------------------5b6b5--3--
F |--5--5--5p4p3--3--3h4h5--5--3h5---------------5--5--3h5-----5--3h5--5--5--3h5------------
C |-----------------------------------------------------------------------------------------

Stave 8:

Eb|----------------------------------------------------------------------
Bb|--------3----------------3h5-----3--------3----------------3h5-----3--
F |--5--------5-----3h5----------------5--------5-----3h5----------------
C |----------------------------------------------------------------------

Stave 9:

Eb|----------------------------------------------------------------------------------------
Bb|----------------------------------------------------------------------------------------
F |--10h12--12--12--12p11p10--10\8--8--8--8/10--10--10\5--5--5--5\3--3--6\5--5--5--5/8--8--
C |----------------------------------------------------------------------------------------

Stave 10:

Eb|----------------------------------------------------------------------------------------
Bb|----------------------------------------------------------------------------------------
F |--10h12--12--12--12p11p10--10\8--8--8--8/10--10--10\5--5--5--5\3--3--6\5--5--5--5/8--8--
C |----------------------------------------------------------------------------------------

Stave 11:

Eb|------------------------------------------------------------------------
Bb|--------3h5-----3--------3-----------------3h5-----3--------3-----------
F |--5----------------5--------3-----4--5----------------5--------3-----4--
C |------------------------------------------------------------------------

Stave 12:

Eb|----------------------------------------------------------------------------
Bb|--------------------3h5--5--5b6b5--3--3-------------------------------------
F |--3h5--5--5--5p3h5-----------------------5--5--5--5p3h5--5p3--3--3--3h5--5--
C |----------------------------------------------------------------------------

Stave 13:

Eb|----------------------------------------------------------------------------
Bb|--------------------3h5--5--5b6b5--3--3-------------------------------------
F |--3h5--5--5--5p3h5-----------------------5--5--5--5p3h5--5p3--3--3--3h5--5--
C |----------------------------------------------------------------------------

Stave 14:

Eb|----------------------------------------------------------------------------
Bb|--------------------3h5--5--5b6b5--3--3-------------------------------------
F |--3h5--5--5--5p3h5-----------------------5--5--5--5p3h5--5p3--3--3--3h5--5--
C |----------------------------------------------------------------------------

Stave 15:

Eb|----------------------------------------------------------------------------
Bb|--------------------3h5--5--5b6b5--3--3-------------------------------------
F |--3h5--5--5--5p3h5-----------------------5--5--5--5p3h5--5p3--3--3--3h5--5--
C |----------------------------------------------------------------------------

Stave 16:

Eb|--------------------------------------------------------------
Bb|--7p5--7p5--7p5--5p3--5p3--5p3--3-----3-----3-----5--5--6--6--
F |-----------------------------------5-----5-----5--------------
C |--------------------------------------------------------------

Stave 17:

Eb|-----------------5-----5-----5-----7p5--7p5--7p5--7p5--7p5--7p5--
Bb|--7p5--7p5--7p5-----7-----7-----7--------------------------------
F |-----------------------------------------------------------------
C |-----------------------------------------------------------------

Stave 18:

Eb|--------------------------------------------------------------
Bb|--7p5--7p5--7p5--5p3--5p3--5p3--3-----3-----3-----5--5--6-----
F |-----------------------------------5-----5-----5--------------
C |--------------------------------------------------------------

Stave 19:

Eb|-----------------5-----5-----5-----7p5--7p5--7p5--7p5--7p5--7p5--7p5--7p5--7p5--7p5--7p5--7p5--
Bb|--7p5--7p5--7p5-----7-----7-----7--------------------------------------------------------------
F |-----------------------------------------------------------------------------------------------
C |-----------------------------------------------------------------------------------------------

Stave 20:

Eb|------------------------------------------------------------------------------------
Bb|------------------------------------------------------------------------------------
F |--6\5--5--5--5/8--8--6\5--5--5--5\3--3--6\5--5--5--5/8--8--8/10--10--10--10/11--10--
C |------------------------------------------------------------------------------------

Stave 21:

Eb|----------------------------------------------------------------------------------------
Bb|----------------------------------------------------------------------------------------
F |--10/12--12--12--12\11\10--10\8--8--8--8/10--10--10\5--5--5--5\3--3--6\5--5--5--5/8--8--
C |----------------------------------------------------------------------------------------

Stave 22:

Eb|------------------------------------------------------------------------------------
Bb|------------------------------------------------------------------------------------
F |--6\5--5--5--5/8--8--6\5--5--5--5\3--3--6\5--5--5--5/8--8--8/10--10--10--10/11--10--
C |------------------------------------------------------------------------------------

Stave 23:

Eb|----------------------------------------------------------------------------------------
Bb|----------------------------------------------------------------------------------------
F |--10/12--12--12--12\11\10--10\8--8--8--8/10--10--10\5--5--5--5\3--3--6\5--5--5--5/8--8--
C |----------------------------------------------------------------------------------------

							http://www.guitartabcreator.com
Instruments
{"strings":[[[".",".",".","_",".",".","_",".",".",".","_",".",".",".","_",".",".","_",".",".","_",".",".",".","_",".",".",".","_","."],[".",".",".","_",3,".","_",".",".",".","_",3,"h",5,"_",3,".","_",3,".","_",".",".",".","_",3,"h",5,"_",3],[3,"h",5,"_",".",5,"_",3,"h",5,"_",".",".",".","_",".",5,"_",".",5,"_",3,"h",5,"_",".",".",".","_","."],[".",".",".","_",".",".","_",".",".",".","_",".",".",".","_",".",".","_",".",".","_",".",".",".","_",".",".",".","_","."]],[[".",".",".",".",".",".",".",".",".",".",".",".",".",".",".",".",".",".",".",".",".",".",".",".","."],[7,7,5,"h",7,"p",5,5,5,3,"h",5,"p",3,3,3,".",3,".",".",".",".",".",".","."],[".",".",".",".",".",".",".",".",".",".",".",".",".",".",".",".",5,".",5,5,5,5,3,"h",5],[".",".",".",".",".",".",".",".",".",".",".",".",".",".",".",".",".",".",".",".",".",".",".",".","."]],[[".",".",".",".",".",".",".",".",".",".",".",".",".",".",".",".",".",".",".",".",".",".",".",".",".","."],[7,7,5,"h",7,"p",5,5,5,3,"h",5,"p",3,3,3,".",3,".",".",".",".",".",".",".","."],[".",".",".",".",".",".",".",".",".",".",".",".",".",".",".",".",5,".",5,5,5,5,"/",6,"\\",5],[".",".",".",".",".",".",".",".",".",".",".",".",".",".",".",".",".",".",".",".",".",".",".",".",".","."]],[[".",".",".",".",".",".",".",".",".",".",".",".",".",".",".",".",".",".",".",".",".",".",".","."],[7,7,5,"h",7,"p",5,5,5,3,"h",5,"p",3,3,".",3,".",".",".",".",".",".","."],[".",".",".",".",".",".",".",".",".",".",".",".",".",".",".",5,".",5,3,3,3,6,"\\",5],[".",".",".",".",".",".",".",".",".",".",".",".",".",".",".",".",".",".",".",".",".",".",".","."]],[[".",".",".",".",".",".",".",".",".",".",".",".",".",".",".",".",".",".",".",".",".",".","."],[7,7,5,"h",7,"p",5,5,5,3,"h",5,"p",3,3,3,".",3,".",5,5,6,6],[".",".",".",".",".",".",".",".",".",".",".",".",".",".",".",".",5,".",5,".",".",".","."],[".",".",".",".",".",".",".",".",".",".",".",".",".",".",".",".",".",".",".",".",".",".","."]],[[".",".",".",".",".",".",".",".",".",".",".",".",".",".",".",".",".",".",".",".",".",".",".",".",".",".",".",".",".",".",".",".",".",".",".",".",".",".",".",".",".",".",".",".",".",".",".",".","."],[".",".",".",".",".",".",".",".",".",".",".",".",".",".",".",".",".",3,"h",5,"p",3,5,3,".",".",".",".",".",".",".",".",".",".",".",".",".",".",".",".",".",3,"h",5,"p",3,5,"b",6],[5,5,5,"p",4,"p",3,3,3,"h",4,"h",5,5,3,"h",5,".",".",".",".",".",".",".",5,5,5,"p",4,"p",3,3,3,"h",4,"h",5,5,3,"h",5,".",".",".",".",".",".",".","."],[".",".",".",".",".",".",".",".",".",".",".",".",".",".",".",".",".",".",".",".",".",".",".",".",".",".",".",".",".",".",".",".",".",".",".",".",".",".",".",".",".",".",".",".",".",".",".",".","."]],[[".",".",".",".",".",".",".",".",".",".",".",".",".",".",".",".",".",".",".",".",".",".",".",".",".",".",".",".",".",".",".",".",".",".",".",".",".",".",".",".",".",".",".",".","."],[".",".",".",".",".",".",".",".",".",".",".",".",".",".",".",".",".",3,"h",5,"p",3,5,3,".",".",".",".",".",3,".",".",".",".",".",".",".",".",".",5,"b",6,"b",5,3],[5,5,5,"p",4,"p",3,3,3,"h",4,"h",5,5,3,"h",5,".",".",".",".",".",".",".",5,5,3,"h",5,".",5,3,"h",5,5,5,3,"h",5,".",".",".",".",".","."],[".",".",".",".",".",".",".",".",".",".",".",".",".",".",".",".",".",".",".",".",".",".",".",".",".",".",".",".",".",".",".",".",".",".",".",".",".",".",".",".",".",".",".",".","."]],[[".","_",".",".","_",".",".",".","_",".",".",".","_",".",".","_",".",".","_",".",".",".","_",".",".",".","_","."],[".","_",3,".","_",".",".",".","_",3,"h",5,"_",3,".","_",3,".","_",".",".",".","_",3,"h",5,"_",3],[5,"_",".",5,"_",3,"h",5,"_",".",".",".","_",".",5,"_",".",5,"_",3,"h",5,"_",".",".",".","_","."],[".","_",".",".","_",".",".",".","_",".",".",".","_",".",".","_",".",".","_",".",".",".","_",".",".",".","_","."]],[[".",".",".",".",".",".",".",".",".",".",".",".",".",".",".",".",".",".",".",".",".",".",".",".",".",".",".",".",".",".",".",".",".",".",".",".","."],[".",".",".",".",".",".",".",".",".",".",".",".",".",".",".",".",".",".",".",".",".",".",".",".",".",".",".",".",".",".",".",".",".",".",".",".","."],[10,"h",12,12,12,12,"p",11,"p",10,10,"\\",8,8,8,8,"/",10,10,10,"\\",5,5,5,5,"\\",3,3,6,"\\",5,5,5,5,"/",8,8],[".",".",".",".",".",".",".",".",".",".",".",".",".",".",".",".",".",".",".",".",".",".",".",".",".",".",".",".",".",".",".",".",".",".",".",".","."]],[[".",".",".",".",".",".",".",".",".",".",".",".",".",".",".",".",".",".",".",".",".",".",".",".",".",".",".",".",".",".",".",".",".",".",".",".","."],[".",".",".",".",".",".",".",".",".",".",".",".",".",".",".",".",".",".",".",".",".",".",".",".",".",".",".",".",".",".",".",".",".",".",".",".","."],[10,"h",12,12,12,12,"p",11,"p",10,10,"\\",8,8,8,8,"/",10,10,10,"\\",5,5,5,5,"\\",3,3,6,"\\",5,5,5,5,"/",8,8],[".",".",".",".",".",".",".",".",".",".",".",".",".",".",".",".",".",".",".",".",".",".",".",".",".",".",".",".",".",".",".",".",".",".",".",".","."]],[[".","_",".",".",".","_",".",".","_",".",".","_",".",".","_",".",".",".","_",".",".","_",".",".","_","."],[".","_",3,"h",5,"_",3,".","_",3,".","_",".",".","_",3,"h",5,"_",3,".","_",3,".","_","."],[5,"_",".",".",".","_",".",5,"_",".",3,"_",4,5,"_",".",".",".","_",".",5,"_",".",3,"_",4],[".","_",".",".",".","_",".",".","_",".",".","_",".",".","_",".",".",".","_",".",".","_",".",".","_","."]],[[".",".",".",".",".",".",".",".",".",".",".",".",".",".",".",".",".",".",".",".",".",".",".",".",".",".",".",".",".",".",".",".",".",".",".",".",".","."],[".",".",".",".",".",".",".",".",".",".",3,"h",5,5,5,"b",6,"b",5,3,3,".",".",".",".",".",".",".",".",".",".",".",".",".",".",".",".","."],[3,"h",5,5,5,5,"p",3,"h",5,".",".",".",".",".",".",".",".",".",".",".",5,5,5,5,"p",3,"h",5,5,"p",3,3,3,3,"h",5,5],[".",".",".",".",".",".",".",".",".",".",".",".",".",".",".",".",".",".",".",".",".",".",".",".",".",".",".",".",".",".",".",".",".",".",".",".",".","."]],[[".",".",".",".",".",".",".",".",".",".",".",".",".",".",".",".",".",".",".",".",".",".",".",".",".",".",".",".",".",".",".",".",".",".",".",".",".","."],[".",".",".",".",".",".",".",".",".",".",3,"h",5,5,5,"b",6,"b",5,3,3,".",".",".",".",".",".",".",".",".",".",".",".",".",".",".",".","."],[3,"h",5,5,5,5,"p",3,"h",5,".",".",".",".",".",".",".",".",".",".",".",5,5,5,5,"p",3,"h",5,5,"p",3,3,3,3,"h",5,5],[".",".",".",".",".",".",".",".",".",".",".",".",".",".",".",".",".",".",".",".",".",".",".",".",".",".",".",".",".",".",".",".",".",".",".",".",".","."]],[[".",".",".",".",".",".",".",".",".",".",".",".",".",".",".",".",".",".",".",".",".",".",".",".",".",".",".",".",".",".",".",".",".",".",".",".",".","."],[".",".",".",".",".",".",".",".",".",".",3,"h",5,5,5,"b",6,"b",5,3,3,".",".",".",".",".",".",".",".",".",".",".",".",".",".",".",".","."],[3,"h",5,5,5,5,"p",3,"h",5,".",".",".",".",".",".",".",".",".",".",".",5,5,5,5,"p",3,"h",5,5,"p",3,3,3,3,"h",5,5],[".",".",".",".",".",".",".",".",".",".",".",".",".",".",".",".",".",".",".",".",".",".",".",".",".",".",".",".",".",".",".",".",".",".",".",".",".","."]],[[".",".",".",".",".",".",".",".",".",".",".",".",".",".",".",".",".",".",".",".",".",".",".",".",".",".",".",".",".",".",".",".",".",".",".",".",".","."],[".",".",".",".",".",".",".",".",".",".",3,"h",5,5,5,"b",6,"b",5,3,3,".",".",".",".",".",".",".",".",".",".",".",".",".",".",".",".","."],[3,"h",5,5,5,5,"p",3,"h",5,".",".",".",".",".",".",".",".",".",".",".",5,5,5,5,"p",3,"h",5,5,"p",3,3,3,3,"h",5,5],[".",".",".",".",".",".",".",".",".",".",".",".",".",".",".",".",".",".",".",".",".",".",".",".",".",".",".",".",".",".",".",".",".",".",".",".",".","."]],[[".",".",".",".",".",".",".",".",".",".",".",".",".",".",".",".",".",".",".",".",".",".",".",".",".",".",".","."],[7,"p",5,7,"p",5,7,"p",5,5,"p",3,5,"p",3,5,"p",3,3,".",3,".",3,".",5,5,6,6],[".",".",".",".",".",".",".",".",".",".",".",".",".",".",".",".",".",".",".",5,".",5,".",5,".",".",".","."],[".",".",".",".",".",".",".",".",".",".",".",".",".",".",".",".",".",".",".",".",".",".",".",".",".",".",".","."]],[[".",".",".",".",".",".",".",".",".",5,".",5,".",5,".",7,"p",5,7,"p",5,7,"p",5,7,"p",5,7,"p",5,7,"p",5],[7,"p",5,7,"p",5,7,"p",5,".",7,".",7,".",7,".",".",".",".",".",".",".",".",".",".",".",".",".",".",".",".",".","."],[".",".",".",".",".",".",".",".",".",".",".",".",".",".",".",".",".",".",".",".",".",".",".",".",".",".",".",".",".",".",".",".","."],[".",".",".",".",".",".",".",".",".",".",".",".",".",".",".",".",".",".",".",".",".",".",".",".",".",".",".",".",".",".",".",".","."]],[[".",".",".",".",".",".",".",".",".",".",".",".",".",".",".",".",".",".",".",".",".",".",".",".",".",".",".","_"],[7,"p",5,7,"p",5,7,"p",5,5,"p",3,5,"p",3,5,"p",3,3,".",3,".",3,".",5,5,6,"_"],[".",".",".",".",".",".",".",".",".",".",".",".",".",".",".",".",".",".",".",5,".",5,".",5,".",".",".","_"],[".",".",".",".",".",".",".",".",".",".",".",".",".",".",".",".",".",".",".",".",".",".",".",".",".",".",".","_"]],[[".",".",".",".",".",".",".",".",".",5,".",5,".",5,".",7,"p",5,7,"p",5,7,"p",5,7,"p",5,7,"p",5,7,"p",5,7,"p",5,7,"p",5,7,"p",5,7,"p",5,7,"p",5,7,"p",5],[7,"p",5,7,"p",5,7,"p",5,".",7,".",7,".",7,".",".",".",".",".",".",".",".",".",".",".",".",".",".",".",".",".",".",".",".",".",".",".",".",".",".",".",".",".",".",".",".",".",".",".","."],[".",".",".",".",".",".",".",".",".",".",".",".",".",".",".",".",".",".",".",".",".",".",".",".",".",".",".",".",".",".",".",".",".",".",".",".",".",".",".",".",".",".",".",".",".",".",".",".",".",".","."],[".",".",".",".",".",".",".",".",".",".",".",".",".",".",".",".",".",".",".",".",".",".",".",".",".",".",".",".",".",".",".",".",".",".",".",".",".",".",".",".",".",".",".",".",".",".",".",".",".",".","."]],[[".",".",".",".",".",".",".",".",".",".",".",".",".",".",".",".",".",".",".",".",".",".",".",".",".",".",".",".",".",".",".",".",".",".",".","."],[".",".",".",".",".",".",".",".",".",".",".",".",".",".",".",".",".",".",".",".",".",".",".",".",".",".",".",".",".",".",".",".",".",".",".","."],[6,"\\",5,5,5,5,"/",8,8,6,"\\",5,5,5,5,"\\",3,3,6,"\\",5,5,5,5,"/",8,8,8,"/",10,10,10,10,"/",11,10],[".",".",".",".",".",".",".",".",".",".",".",".",".",".",".",".",".",".",".",".",".",".",".",".",".",".",".",".",".",".",".",".",".",".",".","."]],[[".",".",".",".",".",".",".",".",".",".",".",".",".",".",".",".",".",".",".",".",".",".",".",".",".",".",".",".",".",".",".",".",".",".",".",".","."],[".",".",".",".",".",".",".",".",".",".",".",".",".",".",".",".",".",".",".",".",".",".",".",".",".",".",".",".",".",".",".",".",".",".",".",".","."],[10,"/",12,12,12,12,"\\",11,"\\",10,10,"\\",8,8,8,8,"/",10,10,10,"\\",5,5,5,5,"\\",3,3,6,"\\",5,5,5,5,"/",8,8],[".",".",".",".",".",".",".",".",".",".",".",".",".",".",".",".",".",".",".",".",".",".",".",".",".",".",".",".",".",".",".",".",".",".",".",".","."]],[[".",".",".",".",".",".",".",".",".",".",".",".",".",".",".",".",".",".",".",".",".",".",".",".",".",".",".",".",".",".",".",".",".",".",".","."],[".",".",".",".",".",".",".",".",".",".",".",".",".",".",".",".",".",".",".",".",".",".",".",".",".",".",".",".",".",".",".",".",".",".",".","."],[6,"\\",5,5,5,5,"/",8,8,6,"\\",5,5,5,5,"\\",3,3,6,"\\",5,5,5,5,"/",8,8,8,"/",10,10,10,10,"/",11,10],[".",".",".",".",".",".",".",".",".",".",".",".",".",".",".",".",".",".",".",".",".",".",".",".",".",".",".",".",".",".",".",".",".",".",".","."]],[[".",".",".",".",".",".",".",".",".",".",".",".",".",".",".",".",".",".",".",".",".",".",".",".",".",".",".",".",".",".",".",".",".",".",".",".","."],[".",".",".",".",".",".",".",".",".",".",".",".",".",".",".",".",".",".",".",".",".",".",".",".",".",".",".",".",".",".",".",".",".",".",".",".","."],[10,"/",12,12,12,12,"\\",11,"\\",10,10,"\\",8,8,8,8,"/",10,10,10,"\\",5,5,5,5,"\\",3,3,6,"\\",5,5,5,5,"/",8,8],[".",".",".",".",".",".",".",".",".",".",".",".",".",".",".",".",".",".",".",".",".",".",".",".",".",".",".",".",".",".",".",".",".",".",".",".","."]]],"numberofstrings":4,"notes":["DsEb","AsBb","F","C"],"capo":0,"stringnotes":["Eb2","Bb1","F1","C1"],"comments":["Stave 1:","Stave 2:","Stave 3:","Stave 4:","Stave 5:","Stave 6:","Stave 7:","Stave 8:","Stave 9:","Stave 10:","Stave 11:","Stave 12:","Stave 13:","Stave 14:","Stave 15:","Stave 16:","Stave 17:","Stave 18:","Stave 19:","Stave 20:","Stave 21:","Stave 22:","Stave 23:"],"timing":[["W",null,"W",null,"W","W",null,"W",null,"W",null,"W",null,"W",null,"W","W",null,"W","W",null,"W",null,"W",null,"W",null,"W",null,"W"],["W","W","W",null,"W",null,"W","W","W","W",null,"W",null,"W","W","W","W","W","W","W","W","W","W",null,"W"],["W","W","W",null,"W",null,"W","W","W","W",null,"W",null,"W","W","W","W","W","W","W","W","W","W","W",null,"W"],["W","W","W",null,"W",null,"W","W","W","W",null,"W",null,"W","W","W","W","W","W","W","W","W","W","W","W"],["W","W","W",null,"W",null,"W","W","W","W",null,"W",null,"W","W","W","W","W","W","W","W","W","W"],["W","W","W",null,"W",null,"W","W","W",null,"W",null,"W","W","W",null,"W","W",null,"W",null,"W","W","W","W","W","W",null,"W",null,"W","W","W",null,"W",null,"W","W","W",null,"W","W",null,"W",null,"W","W",null,"W"],["W","W","W",null,"W",null,"W","W","W",null,"W",null,"W","W","W",null,"W","W",null,"W",null,"W","W","W","W","W","W",null,"W","W","W","W",null,"W","W","W","W",null,"W","W",null,"W",null,"W","W"],["W",null,"W","W",null,"W",null,"W",null,"W",null,"W",null,"W","W",null,"W","W",null,"W",null,"W",null,"W",null,"W",null,"W"],["W",null,"W","W","W","W",null,"W",null,"W","W",null,"W","W","W","W",null,"W","W","W","W","W","W","W","W",null,"W","W","W",null,"W","W","W","W",null,"W","W"],["W",null,"W","W","W","W",null,"W",null,"W","W",null,"W","W","W","W",null,"W","W","W",null,"W","W","W","W",null,"W","W","W",null,"W","W","W","W",null,"W","W"],["W",null,"W",null,"W",null,"W","W",null,"W","W",null,"W","W","W","W",null,"W",null,"W","W",null,"W","W",null,"W"],["W",null,"W","W","W","W",null,"W",null,"W","W",null,"W","W","W","W","W","W","W","W","W","W","W","W","W","W","W","W","W","W","W","W","W","W","W","W","W","W"],["W",null,"W","W","W","W",null,"W",null,"W","W",null,"W","W","W",null,"W",null,"W","W","W","W","W","W","W",null,"W",null,"W","W",null,"W","W","W","W",null,"W","W"],["W",null,"W","W","W","W",null,"W",null,"W","W",null,"W","W","W",null,"W",null,"W","W","W","W","W","W","W",null,"W",null,"W","W",null,"W","W","W","W",null,"W","W"],["W",null,"W","W","W","W",null,"W",null,"W","W",null,"W","W","W",null,"W",null,"W","W","W","W","W","W","W",null,"W",null,"W","W",null,"W","W","W","W",null,"W","W"],["W",null,"W","W",null,"W","W",null,"W","W",null,"W","W",null,"W","W",null,"W","W","W","W","W","W","W","W","W","W","W","W",null,"W","W",null,"W","W",null,"W","W","W","W","W","W","W"],["W",null,"W","W",null,"W","W",null,"W","W","W","W","W","W","W","W",null,"W","W",null,"W","W",null,"W","W",null,"W","W",null,"W","W",null,"W"],["W",null,"W","W",null,"W","W",null,"W","W",null,"W","W",null,"W","W",null,"W","W","W","W","W","W","W","W","W","W"],["W",null,"W","W",null,"W","W",null,"W","W","W","W","W","W","W","W",null,"W","W",null,"W","W",null,"W","W",null,"W","W",null,"W","W",null,"W","W",null,"W","W",null,"W","W",null,"W","W",null,"W","W",null,"W","W",null,"W"],["W",null,"W","W","W","W",null,"W","W","W",null,"W","W","W","W",null,"W","W","W",null,"W","W","W","W",null,"W","W","W",null,"W","W","W","W",null,"W","W"],["W",null,"W","W","W","W",null,"W","W","W","W",null,"W","W","W","W","W","W","W","W",null,"W","W","W","W",null,"W","W","W",null,"W","W","W","W",null,"W","W","W",null,"W","W"],["W",null,"W","W","W","W",null,"W","W","W",null,"W","W","W","W",null,"W","W","W",null,"W","W","W","W",null,"W","W","W",null,"W","W","W","W",null,"W","W"],["W",null,"W","W","W","W",null,"W",null,"W","W",null,"W","W","W","W",null,"W","W","W",null,"W","W","W","W",null,"W","W","W",null,"W","W","W","W",null,"W","W"]],"timingvisible":false,"tabcounter":37,"stave":22,"totalstaves":23,"instrument":"4bass","selectedtuning":"4bass","version":"13"}

Member for

1 month 3 weeks
Submitted by John Dowling on Fri, 2020-09-11 13:22