The Guild Bass

01234567891011121314151617181920212223
E
B
G
D
A
E
B
0 1 2 3 4 5 6 7 8 9 10 11 12 13 14 15 16 17 18 19 20 21 22 23
(/) Slide Up  (\) Slide Down  (h) Hammer On  (p) Pull Off  (b) Bend (r) Release (v) Vibrato

Stave 1:

D|---------------------------------------------------------------
A|-9---7\5h7---7p5-----------5-----9---7\5h7---7p5-----5h7/9-7---
E|----------------h7---7-5h7--h7------------------h7-------------
B|---------------------------------------------------------------

Stave 2:

D|---------------------------------------------------------------
A|-9---7\5h7---7p5-----------5-----------5h7---7-5---5---------5-
E|----------------h7---7-5h7--h7---7-5h7----------h7--h7p5-7-----
B|---------------------------------------------------------------

Stave 3:

D|---------------------------------------------------------------
A|-9---7\5h7---7p5-----------5-----9---7\5h7---7p5-----5h7/9-7---
E|----------------h7---7-5h7--h7------------------h7-------------
B|---------------------------------------------------------------

Stave 4:

D|---------------------------------------------------------------
A|-9---7\5h7---7p5-----------5-----------5h7---7-5---5-----------
E|----------------h7---7-5h7--h7---7-5h7----------h7--h7p5-7---5-
B|---------------------------------------------------------------

Stave 5:

D|-------------------------------
A|-------------------------------
E|-------------------------------
B|-0---0-0-3---3-3-5---5-5-5\3---

Stave 6:

D|---------------------------------------------------------
A|---------------------5h7p5-----------------------5h7/9---
E|-------5h7-------5h7------h7-------5h7-------5h7---------
B|-0---0-------0-0-------------0---0-------0-0-------------

Stave 7:

D|-----------------------------------------------------------
A|---------------------5h7p5---------------------------------
E|-------5h7-------5h7------h7-------------------------------
B|-0---0-------0-0-------------0---0-0-3---3-3-5---5-5-5\3---

Stave 8:

D|---------------------------------------------------------
A|---------------------5h7p5-----------------------5h7/9---
E|-------5h7-------5h7------h7-------5h7-------5h7---------
B|-0---0-------0-0-------------0---0-------0-0-------------

Stave 9:

D|-------------------------------------------------------
A|---------------------5h7p5---5-----------------5-------
E|-------5h7-------5h7------h7-------7-----7-5h7-----7---
B|-0---0-------0-0---------------------------------------

Stave 10:

D|-----------------------------------------------------------------------
A|-----------------------------------------------------------------------
E|-7---7-5-7---7-5-7---7-5-7/10-10---7---7-5-7/10-12-----12/13-12---10---
B|-----------------------------------------------------------------------

Stave 11:

D|--------------------------------------------------------------------
A|--------------------------------------------------------------------
E|-7---7-5-7---7-5-7---7-5-7/10-10---7---7-5-7/10-12-----12/13-12-----
B|--------------------------------------------------------------------

Stave 12:

D|-------------------------------------------------------------------:|-x-2-
A|-8---8-8-5---5-5-7---7-7-------------5-------5-------5h7-7b8b7-5---:|-----
E|-------------------------5---5-5-5h7--h7-5h7--h7-5h7---------------:|-----
B|-------------------------------------------------------------------:|-----

Stave 13:

D|---------------------------------------------------------
A|---------------------5h7p5-----------------------5h7/9---
E|-------5h7-------5h7------h7-------5h7-------5h7---------
B|-0---0-------0-0-------------0---0-------0-0-------------

Stave 14:

D|-------------------------------------------------------
A|---------------------5h7p5---5-----------------5-------
E|-------5h7-------5h7------h7-------7-----7-5h7-----7---
B|-0---0-------0-0---------------------------------------

Stave 15:

D|---------------------------------------------------------
A|---------------------5h7p5-----------------------5h7/9---
E|-------5h7-------5h7------h7-------5h7-------5h7---------
B|-0---0-------0-0-------------0---0-------0-0-------------

Stave 16:

D|-----------------------------------------------------
A|---------------------5h7/9-------------------5-------
E|-------5h7-------5h7-------5-----7-----7-5h7-----7---
B|-0---0-------0-0-------------------------------------

Stave 17:

D|---------------------------------------------------------------------
A|-----------------5---5---5---5-5-7---7-5-7---7-7-9---9-9-------------
E|-7---7-5-7---7-7------h7---------------------------------5---5-5-7---
B|---------------------------------------------------------------------

Stave 18:

D|-------------------------------------------------------------------------------
A|-----5h7-7b8b7---5---------------5h7-7b8b7---9---------------5h7-7b8b7---5-----
E|-5h7-------------------5-7---5h7-------------------5-7---5h7-------------------
B|-------------------------------------------------------------------------------

Stave 19:

D|---------------------------------------
A|-------------------5---5-5-------------
E|-5-7---7-7-5---5-5---------5---5-5-7---
B|---------------------------------------

Stave 20:

D|-------------------------------------------------------------------------------
A|-----5h7-7b8b7---5---------------5h7-7b8b7---9---------------5h7-7b8b7---5-----
E|-5h7-------------------5-7---5h7-------------------5-7---5h7-----------------5-
B|-------------------------------------------------------------------------------

Stave 21:

D|---------------------------------:|-x-2-
A|-8-7---5---7---5-----------------:|-----
E|-------------------5-5---5h7-7---:|-----
B|---------------------------------:|-----

Stave 22:

D|-------------------------------------------------
A|-8-7---5---7---8-----------------8-7---5---7-----
E|-------------------5-5---5h7-7-----------------7-
B|-------------------------------------------------

Stave 23:

D|-----------------------------------------------------------
A|---------------------------------------------------5h7p5---
E|-------------------------------------5h7-------5h7------h7-
B|-0---0-0-3---3-3-5---5-5-5\3---0---0-------0-0-------------

Stave 24:

D|---------------------------------------------------------
A|---------------------------------------------------5h7/9-
E|-------------------------------------5h7-------5h7-------
B|-0---0-0-3---3-3-5---5-5-5\3---0---0-------0-0-----------

Stave 25:

D|-----------------------------------------------------------
A|---------------------------------------------------5h7p5---
E|-------------------------------------5h7-------5h7------h7-
B|-0---0-0-3---3-3-5---5-5-5\3---0---0-------0-0-------------

Stave 26:

D|-------------------------
A|-------------------------
E|-------------------------
B|-0---0-0-3---3-3-5-------

Stave 27:

D|---------------------------------------------------------------
A|-9---7\5h7---7p5-----------5-----9---7\5h7---7p5-----5h7/9-7---
E|----------------h7---7-5h7--h7------------------h7-------------
B|---------------------------------------------------------------

Stave 28:

D|---------------------------------------------------------------
A|-9---7\5h7---7p5-----------5-----------5h7---7-5---5---------5-
E|----------------h7---7-5h7--h7---7-5h7----------h7--h7p5-7-----
B|---------------------------------------------------------------

Stave 29:

D|---------------------------------------------------------------
A|-9---7\5h7---7p5-----------5-----9---7\5h7---7p5-----5h7/9-7---
E|----------------h7---7-5h7--h7------------------h7-------------
B|---------------------------------------------------------------

Stave 30:

D|---------------------------------------------------------------
A|-9---7\5h7---7p5-----------5-----------5h7---7-5---5-----------
E|----------------h7---7-5h7--h7---7-5h7----------h7--h7p5-7---5-
B|---------------------------------------------------------------

Stave 31:

D|-9---7---------------------------9---7---------------------------
A|------h9p7---7\5-7---7p5--------------h9p7---7\5-7---7/9\7---5---
E|-------------------------7-5h7-----------------------------------
B|-----------------------------------------------------------------

Stave 32:

D|-9---7---------------------------------------------------------
A|------h9p7---7\5-7---7p5---------------5h7---7-5h7/9-7\5-7-5---
E|-------------------------7-5h7---7-5h7-------------------------
B|---------------------------------------------------------------

Stave 33:

D|-9---7---------------------------9---7---------------------------
A|------h9p7---7\5-7---7p5--------------h9p7---7\5-7---7/9\7---5---
E|-------------------------7-5h7-----------------------------------
B|-----------------------------------------------------------------

Stave 34:

D|-9---7-----------------------------------------------------------
A|------h9p7---7\5-7---7p5---------------5h7/9\7---7p5h7-7p5---5---
E|-------------------------7-5h7---7p5h7--------------------h7-----
B|-----------------------------------------------------------------

Stave 35:

D|-|:-------------------------------------------------------
A|-|:---------------------5h7p5-----------------------5h7/9-
E|-|:-------5h7-------5h7------h7-------5h7-------5h7-------
B|-|:-0---0-------0-0-------------0---0-------0-0-----------

Stave 36:

D|---------------------5h7p5-------------------------------:|-x-2-
A|-------5h7-------5h7------h7---------------------5h7p5---:|-----
E|-0---0-------0-0-------------------5h7-------5h7---------:|-----
B|-----------------------------0---0-------0-0-------------:|-----

							http://www.guitartabcreator.com
Chords

Instruments
{"strings":[[[".","_",".",".",".",".",".","_",".",".",".",".",".","_",".",".",".",".",".",".",".","_",".","_",".",".",".",".",".","_",".",".",".",".",".","_",".",".",".",".",".",".","_"],[9,"_",7,"\\",5,"h",7,"_",7,"p",5,".",".","_",".",".",".",".",5,".",".","_",9,"_",7,"\\",5,"h",7,"_",7,"p",5,".",".","_",5,"h",7,"/",9,7,"_"],[".","_",".",".",".",".",".","_",".",".",".","h",7,"_",7,5,"h",7,".","h",7,"_",".","_",".",".",".",".",".","_",".",".",".","h",7,"_",".",".",".",".",".",".","_"],[".","_",".",".",".",".",".","_",".",".",".",".",".","_",".",".",".",".",".",".",".","_",".","_",".",".",".",".",".","_",".",".",".",".",".","_",".",".",".",".",".",".","_"]],[[".","_",".",".",".",".",".","_",".",".",".",".",".","_",".",".",".",".",".",".",".","_",".",".",".",".",".",".",".","_",".",".",".",".",".",".",".",".",".",".","_","."],[9,"_",7,"\\",5,"h",7,"_",7,"p",5,".",".","_",".",".",".",".",5,".",".","_",".",".",".",".",5,"h",7,"_",7,5,".",".",5,".",".",".",".",".","_",5],[".","_",".",".",".",".",".","_",".",".",".","h",7,"_",7,5,"h",7,".","h",7,"_",7,5,"h",7,".",".",".","_",".",".","h",7,".","h",7,"p",5,7,"_","."],[".","_",".",".",".",".",".","_",".",".",".",".",".","_",".",".",".",".",".",".",".","_",".",".",".",".",".",".",".","_",".",".",".",".",".",".",".",".",".",".","_","."]],[[".","_",".",".",".",".",".","_",".",".",".",".",".","_",".",".",".",".",".",".",".","_",".","_",".",".",".",".",".","_",".",".",".",".",".","_",".",".",".",".",".",".","_"],[9,"_",7,"\\",5,"h",7,"_",7,"p",5,".",".","_",".",".",".",".",5,".",".","_",9,"_",7,"\\",5,"h",7,"_",7,"p",5,".",".","_",5,"h",7,"/",9,7,"_"],[".","_",".",".",".",".",".","_",".",".",".","h",7,"_",7,5,"h",7,".","h",7,"_",".","_",".",".",".",".",".","_",".",".",".","h",7,"_",".",".",".",".",".",".","_"],[".","_",".",".",".",".",".","_",".",".",".",".",".","_",".",".",".",".",".",".",".","_",".","_",".",".",".",".",".","_",".",".",".",".",".","_",".",".",".",".",".",".","_"]],[[".","_",".",".",".",".",".","_",".",".",".",".",".","_",".",".",".",".",".",".",".","_",".",".",".",".",".",".",".","_",".",".",".",".",".",".",".",".",".",".","_","."],[9,"_",7,"\\",5,"h",7,"_",7,"p",5,".",".","_",".",".",".",".",5,".",".","_",".",".",".",".",5,"h",7,"_",7,5,".",".",5,".",".",".",".",".","_","."],[".","_",".",".",".",".",".","_",".",".",".","h",7,"_",7,5,"h",7,".","h",7,"_",7,5,"h",7,".",".",".","_",".",".","h",7,".","h",7,"p",5,7,"_",5],[".","_",".",".",".",".",".","_",".",".",".",".",".","_",".",".",".",".",".",".",".","_",".",".",".",".",".",".",".","_",".",".",".",".",".",".",".",".",".",".","_","."]],[[".","_",".",".",".","_",".",".",".","_",".",".",".",".",".","_"],[".","_",".",".",".","_",".",".",".","_",".",".",".",".",".","_"],[".","_",".",".",".","_",".",".",".","_",".",".",".",".",".","_"],[0,"_",0,0,3,"_",3,3,5,"_",5,5,5,"\\",3,"_"]],[[".","_",".",".",".",".","_",".",".",".",".",".",".",".",".",".",".",".",".",".","_",".",".",".",".","_",".",".",".",".",".",".",".",".",".",".","_"],[".","_",".",".",".",".","_",".",".",".",".",".",5,"h",7,"p",5,".",".",".","_",".",".",".",".","_",".",".",".",".",".",5,"h",7,"/",9,"_"],[".","_",".",5,"h",7,"_",".",".",5,"h",7,".",".",".",".",".","h",7,".","_",".",5,"h",7,"_",".",".",5,"h",7,".",".",".",".",".","_"],[0,"_",0,".",".",".","_",0,0,".",".",".",".",".",".",".",".",".",".",0,"_",0,".",".",".","_",0,0,".",".",".",".",".",".",".",".","_"]],[[".","_",".",".",".",".","_",".",".",".",".",".",".",".",".",".",".",".",".",".","_",".",".",".","_",".",".",".","_",".",".",".",".",".","_"],[".","_",".",".",".",".","_",".",".",".",".",".",5,"h",7,"p",5,".",".",".","_",".",".",".","_",".",".",".","_",".",".",".",".",".","_"],[".","_",".",5,"h",7,"_",".",".",5,"h",7,".",".",".",".",".","h",7,".","_",".",".",".","_",".",".",".","_",".",".",".",".",".","_"],[0,"_",0,".",".",".","_",0,0,".",".",".",".",".",".",".",".",".",".",0,"_",0,0,3,"_",3,3,5,"_",5,5,5,"\\",3,"_"]],[[".","_",".",".",".",".","_",".",".",".",".",".",".",".",".",".",".",".",".",".","_",".",".",".",".","_",".",".",".",".",".",".",".",".",".",".","_"],[".","_",".",".",".",".","_",".",".",".",".",".",5,"h",7,"p",5,".",".",".","_",".",".",".",".","_",".",".",".",".",".",5,"h",7,"/",9,"_"],[".","_",".",5,"h",7,"_",".",".",5,"h",7,".",".",".",".",".","h",7,".","_",".",5,"h",7,"_",".",".",5,"h",7,".",".",".",".",".","_"],[0,"_",0,".",".",".","_",0,0,".",".",".",".",".",".",".",".",".",".",0,"_",0,".",".",".","_",0,0,".",".",".",".",".",".",".",".","_"]],[[".","_",".",".",".",".","_",".",".",".",".",".",".",".",".",".",".",".",".",".","_","_",".","_","_",".",".",".",".",".","_",".","_"],[".","_",".",".",".",".","_",".",".",".",".",".",5,"h",7,"p",5,".",".",5,"_","_",".","_","_",".",".",".",".",5,"_",".","_"],[".","_",".",5,"h",7,"_",".",".",5,"h",7,".",".",".",".",".","h",7,".","_","_",7,"_","_",7,5,"h",7,".","_",7,"_"],[0,"_",0,".",".",".","_",0,0,".",".",".",".",".",".",".",".",".",".",".","_","_",".","_","_",".",".",".",".",".","_",".","_"]],[[".","_",".",".",".","_",".",".",".","_",".",".",".",".",".",".","_",".","_",".",".",".",".",".",".","_","_",".",".",".",".","_",".","_"],[".","_",".",".",".","_",".",".",".","_",".",".",".",".",".",".","_",".","_",".",".",".",".",".",".","_","_",".",".",".",".","_",".","_"],[7,"_",7,5,7,"_",7,5,7,"_",7,5,7,"/",10,10,"_",7,"_",7,5,7,"/",10,12,"_","_",12,"/",13,12,"_",10,"_"],[".","_",".",".",".","_",".",".",".","_",".",".",".",".",".",".","_",".","_",".",".",".",".",".",".","_","_",".",".",".",".","_",".","_"]],[[".","_",".",".",".","_",".",".",".","_",".",".",".",".",".",".","_",".","_",".",".",".",".",".",".","_","_",".",".",".",".","_","_"],[".","_",".",".",".","_",".",".",".","_",".",".",".",".",".",".","_",".","_",".",".",".",".",".",".","_","_",".",".",".",".","_","_"],[7,"_",7,5,7,"_",7,5,7,"_",7,5,7,"/",10,10,"_",7,"_",7,5,7,"/",10,12,"_","_",12,"/",13,12,"_","_"],[".","_",".",".",".","_",".",".",".","_",".",".",".",".",".",".","_",".","_",".",".",".",".",".",".","_","_",".",".",".",".","_","_"]],[[".","_",".",".",".","_",".",".",".","_",".",".",".","_",".",".",".",".",".",".",".",".",".",".",".",".",".",".",".",".",".",".",".",".",".",".",".",".",".",".","_",":|","x2",2],[8,"_",8,8,5,"_",5,5,7,"_",7,7,".","_",".",".",".",".",".",5,".",".",".",".",".",5,".",".",".",".",".",5,"h",7,7,"b",8,"b",7,5,"_",":|",".","."],[".","_",".",".",".","_",".",".",".","_",".",".",5,"_",5,5,5,"h",7,".","h",7,5,"h",7,".","h",7,5,"h",7,".",".",".",".",".",".",".",".",".","_",":|",".","."],[".","_",".",".",".","_",".",".",".","_",".",".",".","_",".",".",".",".",".",".",".",".",".",".",".",".",".",".",".",".",".",".",".",".",".",".",".",".",".",".","_",":|",".","."]],[[".","_",".",".",".",".","_",".",".",".",".",".",".",".",".",".",".",".",".",".","_",".",".",".",".","_",".",".",".",".",".",".",".",".",".",".","_"],[".","_",".",".",".",".","_",".",".",".",".",".",5,"h",7,"p",5,".",".",".","_",".",".",".",".","_",".",".",".",".",".",5,"h",7,"/",9,"_"],[".","_",".",5,"h",7,"_",".",".",5,"h",7,".",".",".",".",".","h",7,".","_",".",5,"h",7,"_",".",".",5,"h",7,".",".",".",".",".","_"],[0,"_",0,".",".",".","_",0,0,".",".",".",".",".",".",".",".",".",".",0,"_",0,".",".",".","_",0,0,".",".",".",".",".",".",".",".","_"]],[[".","_",".",".",".",".","_",".",".",".",".",".",".",".",".",".",".",".",".",".","_","_",".","_","_",".",".",".",".",".","_",".","_"],[".","_",".",".",".",".","_",".",".",".",".",".",5,"h",7,"p",5,".",".",5,"_","_",".","_","_",".",".",".",".",5,"_",".","_"],[".","_",".",5,"h",7,"_",".",".",5,"h",7,".",".",".",".",".","h",7,".","_","_",7,"_","_",7,5,"h",7,".","_",7,"_"],[0,"_",0,".",".",".","_",0,0,".",".",".",".",".",".",".",".",".",".",".","_","_",".","_","_",".",".",".",".",".","_",".","_"]],[[".","_",".",".",".",".","_",".",".",".",".",".",".",".",".",".",".",".",".",".","_",".",".",".",".","_",".",".",".",".",".",".",".",".",".",".","_"],[".","_",".",".",".",".","_",".",".",".",".",".",5,"h",7,"p",5,".",".",".","_",".",".",".",".","_",".",".",".",".",".",5,"h",7,"/",9,"_"],[".","_",".",5,"h",7,"_",".",".",5,"h",7,".",".",".",".",".","h",7,".","_",".",5,"h",7,"_",".",".",5,"h",7,".",".",".",".",".","_"],[0,"_",0,".",".",".","_",0,0,".",".",".",".",".",".",".",".",".",".",0,"_",0,".",".",".","_",0,0,".",".",".",".",".",".",".",".","_"]],[[".","_",".",".",".",".","_",".",".",".",".",".",".",".",".",".",".",".","_","_",".","_","_",".",".",".",".",".","_",".","_"],[".","_",".",".",".",".","_",".",".",".",".",".",5,"h",7,"/",9,".","_","_",".","_","_",".",".",".",".",5,"_",".","_"],[".","_",".",5,"h",7,"_",".",".",5,"h",7,".",".",".",".",".",5,"_","_",7,"_","_",7,5,"h",7,".","_",7,"_"],[0,"_",0,".",".",".","_",0,0,".",".",".",".",".",".",".",".",".","_","_",".","_","_",".",".",".",".",".","_",".","_"]],[[".","_",".",".",".","_",".",".",".","_",".",".",".",".","_",".",".",".","_",".",".",".","_",".",".",".","_",".",".",".","_",".",".",".","_"],[".","_",".",".",".","_",".",".",5,"_",5,".",".",5,"_",5,5,7,"_",7,5,7,"_",7,7,9,"_",9,9,".","_",".",".",".","_"],[7,"_",7,5,7,"_",7,7,".","_",".","h",7,".","_",".",".",".","_",".",".",".","_",".",".",".","_",".",".",5,"_",5,5,7,"_"],[".","_",".",".",".","_",".",".",".","_",".",".",".",".","_",".",".",".","_",".",".",".","_",".",".",".","_",".",".",".","_",".",".",".","_"]],[[".",".",".",".",".",".",".",".",".",".",".","_",".","_","_",".",".","_",".",".",".",".",".",".",".",".",".",".",".","_",".","_","_",".",".","_",".",".",".",".",".",".",".",".",".",".",".","_",".","_","_"],[".",".",".",5,"h",7,7,"b",8,"b",7,"_",5,"_","_",".",".","_",".",".",".",5,"h",7,7,"b",8,"b",7,"_",9,"_","_",".",".","_",".",".",".",5,"h",7,7,"b",8,"b",7,"_",5,"_","_"],[5,"h",7,".",".",".",".",".",".",".",".","_",".","_","_",5,7,"_",5,"h",7,".",".",".",".",".",".",".",".","_",".","_","_",5,7,"_",5,"h",7,".",".",".",".",".",".",".",".","_",".","_","_"],[".",".",".",".",".",".",".",".",".",".",".","_",".","_","_",".",".","_",".",".",".",".",".",".",".",".",".",".",".","_",".","_","_",".",".","_",".",".",".",".",".",".",".",".",".",".",".","_",".","_","_"]],[[".",".","_",".",".",".","_",".",".",".","_",".",".",".","_",".",".",".","_"],[".",".","_",".",".",".","_",".",".",5,"_",5,5,".","_",".",".",".","_"],[5,7,"_",7,7,5,"_",5,5,".","_",".",".",5,"_",5,5,7,"_"],[".",".","_",".",".",".","_",".",".",".","_",".",".",".","_",".",".",".","_"]],[[".",".",".",".",".",".",".",".",".",".",".","_",".","_","_",".",".","_",".",".",".",".",".",".",".",".",".",".",".","_",".","_","_",".",".","_",".",".",".",".",".",".",".",".",".",".",".","_",".","_","."],[".",".",".",5,"h",7,7,"b",8,"b",7,"_",5,"_","_",".",".","_",".",".",".",5,"h",7,7,"b",8,"b",7,"_",9,"_","_",".",".","_",".",".",".",5,"h",7,7,"b",8,"b",7,"_",5,"_","."],[5,"h",7,".",".",".",".",".",".",".",".","_",".","_","_",5,7,"_",5,"h",7,".",".",".",".",".",".",".",".","_",".","_","_",5,7,"_",5,"h",7,".",".",".",".",".",".",".",".","_",".","_",5],[".",".",".",".",".",".",".",".",".",".",".","_",".","_","_",".",".","_",".",".",".",".",".",".",".",".",".",".",".","_",".","_","_",".",".","_",".",".",".",".",".",".",".",".",".",".",".","_",".","_","."]],[[".",".","_",".","_",".","_",".","_",".",".","_",".",".",".",".","_",":|","x2",2],[8,7,"_",5,"_",7,"_",5,"_",".",".","_",".",".",".",".","_",":|",".","."],[".",".","_",".","_",".","_",".","_",5,5,"_",5,"h",7,7,"_",":|",".","."],[".",".","_",".","_",".","_",".","_",".",".","_",".",".",".",".","_",":|",".","."]],[[".",".","_",".","_",".","_",".","_",".",".","_",".",".",".",".","_",".",".","_",".","_",".","_","."],[8,7,"_",5,"_",7,"_",8,"_",".",".","_",".",".",".",".","_",8,7,"_",5,"_",7,"_","."],[".",".","_",".","_",".","_",".","_",5,5,"_",5,"h",7,7,"_",".",".","_",".","_",".","_",7],[".",".","_",".","_",".","_",".","_",".",".","_",".",".",".",".","_",".",".","_",".","_",".","_","."]],[[".","_",".",".",".","_",".",".",".","_",".",".",".",".",".","_",".","_",".",".",".",".","_",".",".",".",".",".",".",".",".",".",".",".","."],[".","_",".",".",".","_",".",".",".","_",".",".",".",".",".","_",".","_",".",".",".",".","_",".",".",".",".",".",5,"h",7,"p",5,".","."],[".","_",".",".",".","_",".",".",".","_",".",".",".",".",".","_",".","_",".",5,"h",7,"_",".",".",5,"h",7,".",".",".",".",".","h",7],[0,"_",0,0,3,"_",3,3,5,"_",5,5,5,"\\",3,"_",0,"_",0,".",".",".","_",0,0,".",".",".",".",".",".",".",".",".","."]],[[".","_",".",".",".","_",".",".",".","_",".",".",".",".",".","_",".","_",".",".",".",".","_",".",".",".",".",".",".",".",".",".","."],[".","_",".",".",".","_",".",".",".","_",".",".",".",".",".","_",".","_",".",".",".",".","_",".",".",".",".",".",5,"h",7,"/",9],[".","_",".",".",".","_",".",".",".","_",".",".",".",".",".","_",".","_",".",5,"h",7,"_",".",".",5,"h",7,".",".",".",".","."],[0,"_",0,0,3,"_",3,3,5,"_",5,5,5,"\\",3,"_",0,"_",0,".",".",".","_",0,0,".",".",".",".",".",".",".","."]],[[".","_",".",".",".","_",".",".",".","_",".",".",".",".",".","_",".","_",".",".",".",".","_",".",".",".",".",".",".",".",".",".",".",".","."],[".","_",".",".",".","_",".",".",".","_",".",".",".",".",".","_",".","_",".",".",".",".","_",".",".",".",".",".",5,"h",7,"p",5,".","."],[".","_",".",".",".","_",".",".",".","_",".",".",".",".",".","_",".","_",".",5,"h",7,"_",".",".",5,"h",7,".",".",".",".",".","h",7],[0,"_",0,0,3,"_",3,3,5,"_",5,5,5,"\\",3,"_",0,"_",0,".",".",".","_",0,0,".",".",".",".",".",".",".",".",".","."]],[[".","_",".",".",".","_",".",".",".","_","_","_"],[".","_",".",".",".","_",".",".",".","_","_","_"],[".","_",".",".",".","_",".",".",".","_","_","_"],[0,"_",0,0,3,"_",3,3,5,"_","_","_"]],[[".","_",".",".",".",".",".","_",".",".",".",".",".","_",".",".",".",".",".",".",".","_",".","_",".",".",".",".",".","_",".",".",".",".",".","_",".",".",".",".",".",".","_"],[9,"_",7,"\\",5,"h",7,"_",7,"p",5,".",".","_",".",".",".",".",5,".",".","_",9,"_",7,"\\",5,"h",7,"_",7,"p",5,".",".","_",5,"h",7,"/",9,7,"_"],[".","_",".",".",".",".",".","_",".",".",".","h",7,"_",7,5,"h",7,".","h",7,"_",".","_",".",".",".",".",".","_",".",".",".","h",7,"_",".",".",".",".",".",".","_"],[".","_",".",".",".",".",".","_",".",".",".",".",".","_",".",".",".",".",".",".",".","_",".","_",".",".",".",".",".","_",".",".",".",".",".","_",".",".",".",".",".",".","_"]],[[".","_",".",".",".",".",".","_",".",".",".",".",".","_",".",".",".",".",".",".",".","_",".",".",".",".",".",".",".","_",".",".",".",".",".",".",".",".",".",".","_","."],[9,"_",7,"\\",5,"h",7,"_",7,"p",5,".",".","_",".",".",".",".",5,".",".","_",".",".",".",".",5,"h",7,"_",7,5,".",".",5,".",".",".",".",".","_",5],[".","_",".",".",".",".",".","_",".",".",".","h",7,"_",7,5,"h",7,".","h",7,"_",7,5,"h",7,".",".",".","_",".",".","h",7,".","h",7,"p",5,7,"_","."],[".","_",".",".",".",".",".","_",".",".",".",".",".","_",".",".",".",".",".",".",".","_",".",".",".",".",".",".",".","_",".",".",".",".",".",".",".",".",".",".","_","."]],[[".","_",".",".",".",".",".","_",".",".",".",".",".","_",".",".",".",".",".",".",".","_",".","_",".",".",".",".",".","_",".",".",".",".",".","_",".",".",".",".",".",".","_"],[9,"_",7,"\\",5,"h",7,"_",7,"p",5,".",".","_",".",".",".",".",5,".",".","_",9,"_",7,"\\",5,"h",7,"_",7,"p",5,".",".","_",5,"h",7,"/",9,7,"_"],[".","_",".",".",".",".",".","_",".",".",".","h",7,"_",7,5,"h",7,".","h",7,"_",".","_",".",".",".",".",".","_",".",".",".","h",7,"_",".",".",".",".",".",".","_"],[".","_",".",".",".",".",".","_",".",".",".",".",".","_",".",".",".",".",".",".",".","_",".","_",".",".",".",".",".","_",".",".",".",".",".","_",".",".",".",".",".",".","_"]],[[".","_",".",".",".",".",".","_",".",".",".",".",".","_",".",".",".",".",".",".",".","_",".",".",".",".",".",".",".","_",".",".",".",".",".",".",".",".",".",".","_","."],[9,"_",7,"\\",5,"h",7,"_",7,"p",5,".",".","_",".",".",".",".",5,".",".","_",".",".",".",".",5,"h",7,"_",7,5,".",".",5,".",".",".",".",".","_","."],[".","_",".",".",".",".",".","_",".",".",".","h",7,"_",7,5,"h",7,".","h",7,"_",7,5,"h",7,".",".",".","_",".",".","h",7,".","h",7,"p",5,7,"_",5],[".","_",".",".",".",".",".","_",".",".",".",".",".","_",".",".",".",".",".",".",".","_",".",".",".",".",".",".",".","_",".",".",".",".",".",".",".",".",".",".","_","."]],[[9,"_",7,".",".",".",".","_",".",".",".",".","_",".",".",".",".",".",".",".","_",9,"_",7,".",".",".",".","_",".",".",".",".","_",".",".",".",".",".","_",".","_"],[".","_",".","h",9,"p",7,"_",7,"\\",5,7,"_",7,"p",5,".",".",".",".","_",".","_",".","h",9,"p",7,"_",7,"\\",5,7,"_",7,"/",9,"\\",7,"_",5,"_"],[".","_",".",".",".",".",".","_",".",".",".",".","_",".",".",".",7,5,"h",7,"_",".","_",".",".",".",".",".","_",".",".",".",".","_",".",".",".",".",".","_",".","_"],[".","_",".",".",".",".",".","_",".",".",".",".","_",".",".",".",".",".",".",".","_",".","_",".",".",".",".",".","_",".",".",".",".","_",".",".",".",".",".","_",".","_"]],[[9,"_",7,".",".",".",".","_",".",".",".",".","_",".",".",".",".",".",".",".","_",".",".",".",".",".",".",".","_",".",".",".",".",".",".",".",".",".",".",".","_"],[".","_",".","h",9,"p",7,"_",7,"\\",5,7,"_",7,"p",5,".",".",".",".","_",".",".",".",".",5,"h",7,"_",7,5,"h",7,"/",9,7,"\\",5,7,5,"_"],[".","_",".",".",".",".",".","_",".",".",".",".","_",".",".",".",7,5,"h",7,"_",7,5,"h",7,".",".",".","_",".",".",".",".",".",".",".",".",".",".",".","_"],[".","_",".",".",".",".",".","_",".",".",".",".","_",".",".",".",".",".",".",".","_",".",".",".",".",".",".",".","_",".",".",".",".",".",".",".",".",".",".",".","_"]],[[9,"_",7,".",".",".",".","_",".",".",".",".","_",".",".",".",".",".",".",".","_",9,"_",7,".",".",".",".","_",".",".",".",".","_",".",".",".",".",".","_",".","_"],[".","_",".","h",9,"p",7,"_",7,"\\",5,7,"_",7,"p",5,".",".",".",".","_",".","_",".","h",9,"p",7,"_",7,"\\",5,7,"_",7,"/",9,"\\",7,"_",5,"_"],[".","_",".",".",".",".",".","_",".",".",".",".","_",".",".",".",7,5,"h",7,"_",".","_",".",".",".",".",".","_",".",".",".",".","_",".",".",".",".",".","_",".","_"],[".","_",".",".",".",".",".","_",".",".",".",".","_",".",".",".",".",".",".",".","_",".","_",".",".",".",".",".","_",".",".",".",".","_",".",".",".",".",".","_",".","_"]],[[9,"_",7,".",".",".",".","_",".",".",".",".","_",".",".",".",".",".",".",".","_",".",".",".",".",".",".",".",".",".",".",".",".","_",".",".",".",".",".",".",".",".",".",".",".","_"],[".","_",".","h",9,"p",7,"_",7,"\\",5,7,"_",7,"p",5,".",".",".",".","_",".",".",".",".",".",5,"h",7,"/",9,"\\",7,"_",7,"p",5,"h",7,7,"p",5,".",".",5,"_"],[".","_",".",".",".",".",".","_",".",".",".",".","_",".",".",".",7,5,"h",7,"_",7,"p",5,"h",7,".",".",".",".",".",".",".","_",".",".",".",".",".",".",".",".","h",7,".","_"],[".","_",".",".",".",".",".","_",".",".",".",".","_",".",".",".",".",".",".",".","_",".",".",".",".",".",".",".",".",".",".",".",".","_",".",".",".",".",".",".",".",".",".",".",".","_"]],[["|:",".","_",".",".",".",".","_",".",".",".",".",".",".",".",".",".",".",".",".",".","_",".",".",".",".","_",".",".",".",".",".",".",".",".",".","."],["|:",".","_",".",".",".",".","_",".",".",".",".",".",5,"h",7,"p",5,".",".",".","_",".",".",".",".","_",".",".",".",".",".",5,"h",7,"/",9],["|:",".","_",".",5,"h",7,"_",".",".",5,"h",7,".",".",".",".",".","h",7,".","_",".",5,"h",7,"_",".",".",5,"h",7,".",".",".",".","."],["|:",0,"_",0,".",".",".","_",0,0,".",".",".",".",".",".",".",".",".",".",0,"_",0,".",".",".","_",0,0,".",".",".",".",".",".",".","."]],[[".","_",".",".",".",".","_",".",".",".",".",".",5,"h",7,"p",5,".",".",".","_",".",".",".",".","_",".",".",".",".",".",".",".",".",".",".","_",":|","x2",2],[".","_",".",5,"h",7,"_",".",".",5,"h",7,".",".",".",".",".","h",7,".","_",".",".",".",".","_",".",".",".",".",".",5,"h",7,"p",5,"_",":|",".","."],[0,"_",0,".",".",".","_",0,0,".",".",".",".",".",".",".",".",".",".",".","_",".",5,"h",7,"_",".",".",5,"h",7,".",".",".",".",".","_",":|",".","."],[".","_",".",".",".",".","_",".",".",".",".",".",".",".",".",".",".",".",".",0,"_",0,".",".",".","_",0,0,".",".",".",".",".",".",".",".","_",":|",".","."]]],"numberofstrings":4,"notes":["D","A","E","B"],"capo":0,"stringnotes":["D2","A1","E1","B0"],"comments":["Stave 1:","Stave 2:","Stave 3:","Stave 4:","Stave 5:","Stave 6:","Stave 7:","Stave 8:","Stave 9:","Stave 10:","Stave 11:","Stave 12:","Stave 13:","Stave 14:","Stave 15:","Stave 16:","Stave 17:","Stave 18:","Stave 19:","Stave 20:","Stave 21:","Stave 22:","Stave 23:","Stave 24:","Stave 25:","Stave 26:","Stave 27:","Stave 28:","Stave 29:","Stave 30:","Stave 31:","Stave 32:","Stave 33:","Stave 34:","Stave 35:","Stave 36:"],"timing":[["W","W","W",null,"W",null,"W","W","W",null,"W",null,"W","W","W","W",null,"W","W",null,"W","W","W","W","W",null,"W",null,"W","W","W",null,"W",null,"W","W","W",null,"W",null,"W","W","W"],[null,null,null,null,null,null,null,null,null,null,null,null,null,null,null,null,null,null,null,null,null,null,"W","W",null,"W","W",null,"W","W","W","W",null,"W","W",null,"W",null,"W","W","W","W"],[],[null,null,null,null,null,null,null,null,null,null,null,null,null,null,null,null,null,null,null,null,null,null,null,null,null,null,null,null,null,null,null,null,null,null,null,null,null,null,null,null,null,"W"],["W","W","W","W","W","W","W","W","W","W","W","W","W",null,"W","W"],["W","W","W","W",null,"W","W","W","W","W",null,"W","W",null,"W",null,"W",null,"W","W","W","W","W",null,"W","W","W","W","W",null,"W","W",null,"W",null,"W","W"],["W","W","W","W",null,"W","W","W","W","W",null,"W","W",null,"W",null,"W",null,"W","W","W","W","W","W","W","W","W","W","W","W","W","W",null,"W","W"],[],["W","W","W","W",null,"W","W","W","W","W",null,"W","W",null,"W",null,"W",null,"W","W","W","W","W","W","W","W","W",null,"W","W","W","W","W"],["W","W","W","W","W","W","W","W","W","W","W","W","W",null,"W","W","W","W","W","W","W","W",null,"W","W","W","W","W",null,"W","W","W","W","W"],[null,null,null,null,null,null,null,null,null,null,null,null,null,null,null,null,null,null,null,null,null,null,null,null,null,null,null,null,null,null,null,null,"W"],["W","W","W","W","W","W","W","W","W","W","W","W","W","W","W","W","W",null,"W","W",null,"W","W",null,"W","W",null,"W","W",null,"W","W",null,"W","W",null,"W",null,"W","W","W",null,"W","W"],[],[],[null,null,null,null,null,null,null,null,null,null,null,null,null,null,null,null,null,null,null,null,null,null,null,null,null,null,null,null,null,null,null,null,null,null,null,null,null],["W","W","W","W",null,"W","W","W","W","W",null,"W","W",null,"W",null,"W","W","W","W","W","W","W","W","W",null,"W","W","W","W","W"],["W","W","W","W","W","W","W","W","W","W","W",null,"W","W","W","W","W","W","W","W","W","W","W","W","W","W","W","W","W","W","W","W","W","W","W"],["W","W","W",null,"W","W",null,"W","W",null,"W",null,"W","W","W","W","W","W","W","W","W",null,"W","W",null,"W","W",null,"W",null,"W","W","W","W","W","W","W","W","W",null,"W","W",null,"W","W",null,"W",null,"W","W","W","W","W"],[null,null,null,null,null,null,null,null,null,null,null,null,null,null,null,null,null,"W","W"],[null,null,null,null,null,null,null,null,null,null,null,null,null,null,null,null,null,null,null,null,null,null,null,null,null,null,null,null,null,null,null,null,null,null,null,null,null,null,null,null,null,null,null,null,null,null,null,null,null,null,"W"],["W","W","W","W","W","W","W","W","W","W","W","W","W",null,"W","W","W",null,"W","W"],["W","W","W","W","W","W","W","W","W","W","W","W","W",null,"W","W","W","W","W","W","W","W","W","W","W"],["W","W","W","W","W","W","W","W","W","W","W","W","W",null,"W","W","W","W","W","W",null,"W","W","W","W","W",null,"W","W",null,"W",null,"W",null,"W"],["W","W","W","W","W","W","W","W","W","W","W","W","W",null,"W","W","W","W","W","W",null,"W","W","W","W","W",null,"W","W",null,"W",null,"W"],[],["W","W","W","W","W","W","W","W","W","W","W","W"],[],[],[],[],["W","W","W",null,"W",null,"W","W","W",null,"W","W","W","W",null,"W","W","W",null,"W","W","W","W","W",null,"W",null,"W","W","W",null,"W","W","W","W",null,"W",null,"W","W","W","W"],[null,null,null,null,null,null,null,null,null,null,null,null,null,null,null,null,null,null,null,null,null,"W","W",null,"W","W",null,"W","W","W","W",null,"W",null,"W","W",null,"W","W","W","W"],[],[null,null,null,null,null,null,null,null,null,null,null,null,null,null,null,null,null,null,null,null,null,"W",null,"W",null,"W","W",null,"W",null,"W",null,"W","W","W",null,"W",null,"W","W",null,"W",null,"W","W","W"],[null,"W","W","W","W",null,"W","W","W","W","W",null,"W","W",null,"W",null,"W",null,"W","W","W","W","W",null,"W","W","W","W","W",null,"W","W",null,"W",null,"W"],["W","W","W","W",null,"W","W","W","W","W",null,"W","W",null,"W",null,"W",null,"W","W","W","W","W",null,"W","W","W","W","W",null,"W","W",null,"W",null,"W","W",null,"W","W"]],"timingvisible":false,"tabcounter":40,"stave":35,"totalstaves":36,"instrument":"4bass","selectedtuning":"4bass","version":"13"}

Member for

1 year 2 months
Submitted by John Dowling on Tue, 2021-10-12 12:55