Crystal Bass

Chords

01234567891011121314151617181920212223
E
B
G
D
A
E
B
0 1 2 3 4 5 6 7 8 9 10 11 12 13 14 15 16 17 18 19 20 21 22 23
(/) Slide Up  (\) Slide Down  (h) Hammer On  (p) Pull Off  (b) Bend (r) Release (v) Vibrato

Stave 1:

Eb|--------------------------------------------------------------------------------
Bb|--------------------------------------------------------------------------------
F |--------------------------------------------------------------------------------
C |--3/5--5--5--5--5--5--5--3/5--5--5--5--6--5--3/5--5--5--5--5--5--5--3-----4-----

Stave 2:

Eb|--------------------------------------------------------------------------------
Bb|--------------------------------------------------------------------------------
F |--------------------------------------------------------------------------------
C |--6\5--5--5--5--5--5--5--6\5--5--5--5--3--5--6\5--5--5--5--5--5--5--3-----4-----

Stave 3:

Eb|--------------------------------------------------------------------------------------------
Bb|--------------------------------------------------------------------------------------------
F |--5/7--7--7--7\3--3--3--3/10--10--10--10/12--12--12--5/7--7--7--7\3--3--3--8--7--3/5--5--5--
C |--------------------------------------------------------------------------------------------

Stave 4:

Eb|-------------------------------------------------------------------------------------------------
Bb|-------------------------------------------------------------------------------------------------
F |--5/7--7--7--7\3--3--3--3/10--10--10--10/12--12--12--12\10--10--10--10\7--7--7--8--7--5\3--3--3--
C |-------------------------------------------------------------------------------------------------

Stave 5:

Eb|--------------------------------------------------------------------------------------
Bb|--------------------------------------------------------------------------------------
F |--------------------------------------------------------------------------------------
C |--3h5--5--5--5--5p3h5--3h5--5--5--5--6--5--3h5--5--5--5--5p3h5--5/6--6--6--6p3--3--3--

Stave 6:

Eb|-------------------------------------------------------------------------------------
Bb|-------------------------------------------------------------------------------------
F |-------------------------------------------------------------------------------------
C |--3h5--5--5--5--5p3h5--3h5--5--5--5--6--5--5h6--6--6--6--6p5h6--6p3--3--3--3--3h5p3--

Stave 7:

Eb|-------------------------------------------------------------------------------------
Bb|-------------------------------------------------------------------------------------
F |-------------------------------------------------------------------------------------
C |--3h5--5--5--5--5p3h5--3h5--5--5--5--6--5--5h6--6--6--6--6p5h6--6p3--3--3--3--3h5p3--

Stave 8:

Eb|-------------------------------------------------------------------------------------
Bb|-------------------------------------------------------------------------------------
F |-------------------------------------------------------------------------------------
C |--3h5--5--5--5--5p3h5--3h5--5--5--5--6--5--5h6--6--6--6--6p5h6--6p3--3--3--3--3h5p3--

Stave 9:

Eb|--------------------------------------------------------------------------------------------
Bb|--------------------------------------------------------------------------------------------
F |--5/7--7--7--7\3--3--3--3/10--10--10--10/12--12--12--5/7--7--7--7\3--3--3--8--7--3/5--5--5--
C |--------------------------------------------------------------------------------------------

Stave 10:

Eb|-------------------------------------------------------------------------------------------------
Bb|-------------------------------------------------------------------------------------------------
F |--5/7--7--7--7\3--3--3--3/10--10--10--10/12--12--12--12\10--10--10--10\7--7--7--8--7--5\3--3--3--
C |-------------------------------------------------------------------------------------------------

Stave 11:

Eb|------------------------------------------------------------------------
Bb|-----------------------------------5h7--7--7--5--5--5-------------------
F |--0--0--0--3--3--3--5--5--5--7--7----------------------7--7--7--5\3--0--
C |------------------------------------------------------------------------

Stave 12:

Eb|-------------------------------------------5h7--7/9--12/14--14--14-----
Bb|-----------------------------------5h7--7------------------------------
F |--0--0--0--3--3--3--5--5--5--7--7--------------------------------------
C |-----------------------------------------------------------------------

Stave 13:

Eb|-------------------------------------------------------------------------------------
Bb|--7p5-----5--5------------------------------7p5-----5--5-----------------------------
F |-------7--------7p5--7--7p5\3--5--5p3p0--0-------7--------7p5--7--7p5\3--5--5p3h5/7--
C |-------------------------------------------------------------------------------------

Stave 14:

Eb|-------------------------------------------------------------------------------------
Bb|--7p5-----5--5------------------------------7p5-----5--5-----------------------------
F |-------7--------7p5--7--7p5\3--5--5p3p0--0-------7--------7p5--7--7p5\3--5--5p3h5/7--
C |-------------------------------------------------------------------------------------

Stave 15:

Eb|--------------------------------------------------------
Bb|--------------------------------------------------------
F |--7--5--3--------------3--5--7--5--3--------------------
C |-----------5--5--3--5-----------------5--5--3--5--3--0--

Stave 16:

Eb|----------------------------------------------------------------------------------
Bb|-----7p5-----5--7p5--------------------------7p5-----5--7p5-----------------------
F |--0-------7----------7--5--5h7p5--5\3--3--0-------7----------7--3--3--3--5--5--7--
C |----------------------------------------------------------------------------------

Stave 17:

Eb|----------------------------------------------------------------5--5--5--7--7--5--
Bb|-----7p5-----5--7p5--------------------------7p5-----5--7p5-----------------------
F |--0-------7----------7--5--5h7p5--5\3--3--0-------7----------7--------------------
C |----------------------------------------------------------------------------------

Stave 18:

Eb|-------------------------------------------------------
Bb|-------------------------------------------------------
F |--5--5--3--3--0--0--0--------5--5--3--3--0--0--0--3/5--
C |-----------------------3--3----------------------------

Stave 19:

Eb|--------------------------------------------------------
Bb|--------------------------------------------------------
F |--5--5--3--3--0--0--0--------5--5--3--3--0h3p0--3/5--3--
C |-----------------------3--3-----------------------------

Stave 20:

Eb|--------------------------------------------------------------------------
Bb|-----7p5-----5--7p5------------------------7p5-----5--7p5-----------------
F |--0-------7----------7--5--5h7p5--3--5--0-------7----------7--3--3--5--5--
C |--------------------------------------------------------------------------

Stave 21:

Eb|--------------------------------------------------------------------------
Bb|-----7p5-----5--7p5------------------------7p5-----5--7p5-----------------
F |--0-------7----------7--5--5h7p5--3--5--0-------7----------7--5-----3-----
C |--------------------------------------------------------------------------

Stave 22:

Eb|--------------------------------------------------------------------------------------
Bb|--------------------------------------------------------------------------------------
F |----------------------------------------------------------------3h5--5--5--5/7--3-----
C |--3h5--5--5--5--5p3h5--3h5--5--5--5--6--5--3h5--5--5--5--5p3h5------------------------

Stave 23:

Eb|----------------------------------------------------------------------------------
Bb|----------------------------------------------------------------------------------
F |-------------------------------------------------------------7\5--5--5--5p3/7-----
C |--6\5--5--5--5p3h5--6\5--5--5--5--3--5--6\5--5--5--5--5p3h5-----------------------

Stave 24:

Eb|--------------------------------------------------------------------------------------------
Bb|--------------------------------------------------------------------------------------------
F |--3h5--5--5--5--5p3h5--5/7--7--7--7--7p5h7--7/8--8--8--8--8p7h8--8/10--10--10--10--10p8h10--
C |--------------------------------------------------------------------------------------------

Stave 25:

Eb|---------------------------------------------------
Bb|---------------------------------------------------
F |--10/12--12--12--12--12--10--10--10h12--12--13\12--
C |---------------------------------------------------

							http://www.guitartabcreator.com
Instruments
{"strings":[[[".",".",".",".",".",".",".",".",".",".",".",".",".",".",".",".",".",".",".",".",".",".",".",".",".",".",".","_",".","_"],[".",".",".",".",".",".",".",".",".",".",".",".",".",".",".",".",".",".",".",".",".",".",".",".",".",".",".","_",".","_"],[".",".",".",".",".",".",".",".",".",".",".",".",".",".",".",".",".",".",".",".",".",".",".",".",".",".",".","_",".","_"],[3,"/",5,5,5,5,5,5,5,3,"/",5,5,5,5,6,5,3,"/",5,5,5,5,5,5,5,3,"_",4,"_"]],[[".",".",".",".",".",".",".",".",".",".",".",".",".",".",".",".",".",".",".",".",".",".",".",".",".",".",".","_",".","_"],[".",".",".",".",".",".",".",".",".",".",".",".",".",".",".",".",".",".",".",".",".",".",".",".",".",".",".","_",".","_"],[".",".",".",".",".",".",".",".",".",".",".",".",".",".",".",".",".",".",".",".",".",".",".",".",".",".",".","_",".","_"],[6,"\\",5,5,5,5,5,5,5,6,"\\",5,5,5,5,3,5,6,"\\",5,5,5,5,5,5,5,3,"_",4,"_"]],[[".",".",".",".",".",".",".",".",".",".",".",".",".",".",".",".",".",".",".",".",".",".",".",".",".",".",".",".",".",".",".",".",".",".",".",".","."],[".",".",".",".",".",".",".",".",".",".",".",".",".",".",".",".",".",".",".",".",".",".",".",".",".",".",".",".",".",".",".",".",".",".",".",".","."],[5,"/",7,7,7,7,"\\",3,3,3,3,"/",10,10,10,10,"/",12,12,12,5,"/",7,7,7,7,"\\",3,3,3,8,7,3,"/",5,5,5],[".",".",".",".",".",".",".",".",".",".",".",".",".",".",".",".",".",".",".",".",".",".",".",".",".",".",".",".",".",".",".",".",".",".",".",".","."]],[[".",".",".",".",".",".",".",".",".",".",".",".",".",".",".",".",".",".",".",".",".",".",".",".",".",".",".",".",".",".",".",".",".",".",".",".","."],[".",".",".",".",".",".",".",".",".",".",".",".",".",".",".",".",".",".",".",".",".",".",".",".",".",".",".",".",".",".",".",".",".",".",".",".","."],[5,"/",7,7,7,7,"\\",3,3,3,3,"/",10,10,10,10,"/",12,12,12,12,"\\",10,10,10,10,"\\",7,7,7,8,7,5,"\\",3,3,3],[".",".",".",".",".",".",".",".",".",".",".",".",".",".",".",".",".",".",".",".",".",".",".",".",".",".",".",".",".",".",".",".",".",".",".",".","."]],[[".",".",".",".",".",".",".",".",".",".",".",".",".",".",".",".",".",".",".",".",".",".",".",".",".",".",".",".",".",".",".",".",".",".",".",".",".",".",".","."],[".",".",".",".",".",".",".",".",".",".",".",".",".",".",".",".",".",".",".",".",".",".",".",".",".",".",".",".",".",".",".",".",".",".",".",".",".",".",".","."],[".",".",".",".",".",".",".",".",".",".",".",".",".",".",".",".",".",".",".",".",".",".",".",".",".",".",".",".",".",".",".",".",".",".",".",".",".",".",".","."],[3,"h",5,5,5,5,5,"p",3,"h",5,3,"h",5,5,5,5,6,5,3,"h",5,5,5,5,5,"p",3,"h",5,5,"/",6,6,6,6,"p",3,3,3]],[[".",".",".",".",".",".",".",".",".",".",".",".",".",".",".",".",".",".",".",".",".",".",".",".",".",".",".",".",".",".",".",".",".",".",".",".",".",".",".",".","."],[".",".",".",".",".",".",".",".",".",".",".",".",".",".",".",".",".",".",".",".",".",".",".",".",".",".",".",".",".",".",".",".",".",".",".",".",".",".",".",".","."],[".",".",".",".",".",".",".",".",".",".",".",".",".",".",".",".",".",".",".",".",".",".",".",".",".",".",".",".",".",".",".",".",".",".",".",".",".",".",".",".","."],[3,"h",5,5,5,5,5,"p",3,"h",5,3,"h",5,5,5,5,6,5,5,"h",6,6,6,6,6,"p",5,"h",6,6,"p",3,3,3,3,3,"h",5,"p",3]],[[".",".",".",".",".",".",".",".",".",".",".",".",".",".",".",".",".",".",".",".",".",".",".",".",".",".",".",".",".",".",".",".",".",".",".",".",".",".",".",".","."],[".",".",".",".",".",".",".",".",".",".",".",".",".",".",".",".",".",".",".",".",".",".",".",".",".",".",".",".",".",".",".",".",".",".",".",".",".",".",".",".","."],[".",".",".",".",".",".",".",".",".",".",".",".",".",".",".",".",".",".",".",".",".",".",".",".",".",".",".",".",".",".",".",".",".",".",".",".",".",".",".",".","."],[3,"h",5,5,5,5,5,"p",3,"h",5,3,"h",5,5,5,5,6,5,5,"h",6,6,6,6,6,"p",5,"h",6,6,"p",3,3,3,3,3,"h",5,"p",3]],[[".",".",".",".",".",".",".",".",".",".",".",".",".",".",".",".",".",".",".",".",".",".",".",".",".",".",".",".",".",".",".",".",".",".",".",".",".",".",".",".","."],[".",".",".",".",".",".",".",".",".",".",".",".",".",".",".",".",".",".",".",".",".",".",".",".",".",".",".",".",".",".",".",".",".",".",".",".",".",".",".",".","."],[".",".",".",".",".",".",".",".",".",".",".",".",".",".",".",".",".",".",".",".",".",".",".",".",".",".",".",".",".",".",".",".",".",".",".",".",".",".",".",".","."],[3,"h",5,5,5,5,5,"p",3,"h",5,3,"h",5,5,5,5,6,5,5,"h",6,6,6,6,6,"p",5,"h",6,6,"p",3,3,3,3,3,"h",5,"p",3]],[[".",".",".",".",".",".",".",".",".",".",".",".",".",".",".",".",".",".",".",".",".",".",".",".",".",".",".",".",".",".",".",".",".",".",".",".","."],[".",".",".",".",".",".",".",".",".",".",".",".",".",".",".",".",".",".",".",".",".",".",".",".",".",".",".",".",".",".",".",".",".",".",".",".","."],[5,"/",7,7,7,7,"\\",3,3,3,3,"/",10,10,10,10,"/",12,12,12,5,"/",7,7,7,7,"\\",3,3,3,8,7,3,"/",5,5,5],[".",".",".",".",".",".",".",".",".",".",".",".",".",".",".",".",".",".",".",".",".",".",".",".",".",".",".",".",".",".",".",".",".",".",".",".","."]],[[".",".",".",".",".",".",".",".",".",".",".",".",".",".",".",".",".",".",".",".",".",".",".",".",".",".",".",".",".",".",".",".",".",".",".",".","."],[".",".",".",".",".",".",".",".",".",".",".",".",".",".",".",".",".",".",".",".",".",".",".",".",".",".",".",".",".",".",".",".",".",".",".",".","."],[5,"/",7,7,7,7,"\\",3,3,3,3,"/",10,10,10,10,"/",12,12,12,12,"\\",10,10,10,10,"\\",7,7,7,8,7,5,"\\",3,3,3],[".",".",".",".",".",".",".",".",".",".",".",".",".",".",".",".",".",".",".",".",".",".",".",".",".",".",".",".",".",".",".",".",".",".",".",".","."]],[[".",".",".",".",".",".",".",".",".",".",".",".",".",".",".",".",".",".",".",".",".",".",".",".",".","."],[".",".",".",".",".",".",".",".",".",".",".",5,"h",7,7,7,5,5,5,".",".",".",".",".",".","."],[0,0,0,3,3,3,5,5,5,7,7,".",".",".",".",".",".",".",".",7,7,7,5,"\\",3,0],[".",".",".",".",".",".",".",".",".",".",".",".",".",".",".",".",".",".",".",".",".",".",".",".",".","."]],[[".",".",".",".",".",".",".",".",".",".",".",".",".",".",".",5,"h",7,7,"/",9,12,"/",14,14,14,"_"],[".",".",".",".",".",".",".",".",".",".",".",5,"h",7,7,".",".",".",".",".",".",".",".",".",".",".","_"],[0,0,0,3,3,3,5,5,5,7,7,".",".",".",".",".",".",".",".",".",".",".",".",".",".",".","_"],[".",".",".",".",".",".",".",".",".",".",".",".",".",".",".",".",".",".",".",".",".",".",".",".",".",".","_"]],[[".",".",".",".",".",".",".",".",".",".",".",".",".",".",".",".",".",".",".",".",".",".",".",".",".",".",".",".",".",".",".",".",".",".",".",".",".",".",".",".",".",".",".",".","."],[7,"p",5,".",5,5,".",".",".",".",".",".",".",".",".",".",".",".",".",".",".",".",7,"p",5,".",5,5,".",".",".",".",".",".",".",".",".",".",".",".",".",".",".",".","."],[".",".",".",7,".",".",7,"p",5,7,7,"p",5,"\\",3,5,5,"p",3,"p",0,0,".",".",".",7,".",".",7,"p",5,7,7,"p",5,"\\",3,5,5,"p",3,"h",5,"/",7],[".",".",".",".",".",".",".",".",".",".",".",".",".",".",".",".",".",".",".",".",".",".",".",".",".",".",".",".",".",".",".",".",".",".",".",".",".",".",".",".",".",".",".",".","."]],[[".",".",".",".",".",".",".",".",".",".",".",".",".",".",".",".",".",".",".",".",".",".",".",".",".",".",".",".",".",".",".",".",".",".",".",".",".",".",".",".",".",".",".",".","."],[7,"p",5,".",5,5,".",".",".",".",".",".",".",".",".",".",".",".",".",".",".",".",7,"p",5,".",5,5,".",".",".",".",".",".",".",".",".",".",".",".",".",".",".",".","."],[".",".",".",7,".",".",7,"p",5,7,7,"p",5,"\\",3,5,5,"p",3,"p",0,0,".",".",".",7,".",".",7,"p",5,7,7,"p",5,"\\",3,5,5,"p",3,"h",5,"/",7],[".",".",".",".",".",".",".",".",".",".",".",".",".",".",".",".",".",".",".",".",".",".",".",".",".",".",".",".",".",".",".",".",".",".",".",".",".",".",".",".",".",".",".",".","."]],[[".",".",".",".",".",".",".",".",".",".",".",".",".",".",".",".",".","."],[".",".",".",".",".",".",".",".",".",".",".",".",".",".",".",".",".","."],[7,5,3,".",".",".",".",3,5,7,5,3,".",".",".",".",".","."],[".",".",".",5,5,3,5,".",".",".",".",".",5,5,3,5,3,0]],[[".",".",".",".",".",".",".",".",".",".",".",".",".",".",".",".",".",".",".",".",".",".",".",".",".",".",".",".",".",".",".",".",".",".",".","."],[".",7,"p",5,".",5,7,"p",5,".",".",".",".",".",".",".",".",".",".",".",".",7,"p",5,".",5,7,"p",5,".",".",".",".",".",".","."],[0,".",".",".",7,".",".",".",".",7,5,5,"h",7,"p",5,5,"\\",3,3,0,".",".",".",7,".",".",".",".",7,3,3,3,5,5,7],[".",".",".",".",".",".",".",".",".",".",".",".",".",".",".",".",".",".",".",".",".",".",".",".",".",".",".",".",".",".",".",".",".",".",".","."]],[[".",".",".",".",".",".",".",".",".",".",".",".",".",".",".",".",".",".",".",".",".",".",".",".",".",".",".",".",".",".",5,5,5,7,7,5],[".",7,"p",5,".",5,7,"p",5,".",".",".",".",".",".",".",".",".",".",".",".",7,"p",5,".",5,7,"p",5,".",".",".",".",".",".","."],[0,".",".",".",7,".",".",".",".",7,5,5,"h",7,"p",5,5,"\\",3,3,0,".",".",".",7,".",".",".",".",7,".",".",".",".",".","."],[".",".",".",".",".",".",".",".",".",".",".",".",".",".",".",".",".",".",".",".",".",".",".",".",".",".",".",".",".",".",".",".",".",".",".","."]],[[".",".",".",".",".",".",".",".",".",".",".",".",".",".",".",".",".",".","."],[".",".",".",".",".",".",".",".",".",".",".",".",".",".",".",".",".",".","."],[5,5,3,3,0,0,0,".",".",5,5,3,3,0,0,0,3,"/",5],[".",".",".",".",".",".",".",3,3,".",".",".",".",".",".",".",".",".","."]],[[".",".",".",".",".",".",".",".",".",".",".",".",".",".",".",".",".",".",".",".",".","."],[".",".",".",".",".",".",".",".",".",".",".",".",".",".",".",".",".",".",".",".",".","."],[5,5,3,3,0,0,0,".",".",5,5,3,3,0,"h",3,"p",0,3,"/",5,3],[".",".",".",".",".",".",".",3,3,".",".",".",".",".",".",".",".",".",".",".",".","."]],[[".",".",".",".",".",".",".",".",".",".",".",".",".",".",".",".",".",".",".",".",".",".",".",".",".",".",".",".",".",".",".","."],[".",7,"p",5,".",5,7,"p",5,".",".",".",".",".",".",".",".",".",".",7,"p",5,".",5,7,"p",5,".",".",".",".","."],[0,".",".",".",7,".",".",".",".",7,5,5,"h",7,"p",5,3,5,0,".",".",".",7,".",".",".",".",7,3,3,5,5],[".",".",".",".",".",".",".",".",".",".",".",".",".",".",".",".",".",".",".",".",".",".",".",".",".",".",".",".",".",".",".","."]],[[".",".",".",".",".",".",".",".",".",".",".",".",".",".",".",".",".",".",".",".",".",".",".",".",".",".",".",".",".","_",".","_"],[".",7,"p",5,".",5,7,"p",5,".",".",".",".",".",".",".",".",".",".",7,"p",5,".",5,7,"p",5,".",".","_",".","_"],[0,".",".",".",7,".",".",".",".",7,5,5,"h",7,"p",5,3,5,0,".",".",".",7,".",".",".",".",7,5,"_",3,"_"],[".",".",".",".",".",".",".",".",".",".",".",".",".",".",".",".",".",".",".",".",".",".",".",".",".",".",".",".",".","_",".","_"]],[[".",".",".",".",".",".",".",".",".",".",".",".",".",".",".",".",".",".",".",".",".",".",".",".",".",".",".",".",".",".",".",".",".",".",".",".",".",".",".","_"],[".",".",".",".",".",".",".",".",".",".",".",".",".",".",".",".",".",".",".",".",".",".",".",".",".",".",".",".",".",".",".",".",".",".",".",".",".",".",".","_"],[".",".",".",".",".",".",".",".",".",".",".",".",".",".",".",".",".",".",".",".",".",".",".",".",".",".",".",".",".",".",3,"h",5,5,5,5,"/",7,3,"_"],[3,"h",5,5,5,5,5,"p",3,"h",5,3,"h",5,5,5,5,6,5,3,"h",5,5,5,5,5,"p",3,"h",5,".",".",".",".",".",".",".",".",".","_"]],[[".",".",".",".",".",".",".",".",".",".",".",".",".",".",".",".",".",".",".",".",".",".",".",".",".",".",".",".",".",".",".",".",".",".",".",".",".",".",".","_"],[".",".",".",".",".",".",".",".",".",".",".",".",".",".",".",".",".",".",".",".",".",".",".",".",".",".",".",".",".",".",".",".",".",".",".",".",".",".",".","_"],[".",".",".",".",".",".",".",".",".",".",".",".",".",".",".",".",".",".",".",".",".",".",".",".",".",".",".",".",".",7,"\\",5,5,5,5,"p",3,"/",7,"_"],[6,"\\",5,5,5,5,"p",3,"h",5,6,"\\",5,5,5,5,3,5,6,"\\",5,5,5,5,5,"p",3,"h",5,".",".",".",".",".",".",".",".",".",".","_"]],[[".",".",".",".",".",".",".",".",".",".",".",".",".",".",".",".",".",".",".",".",".",".",".",".",".",".",".",".",".",".",".",".",".",".",".",".",".",".",".",".",".",".",".","."],[".",".",".",".",".",".",".",".",".",".",".",".",".",".",".",".",".",".",".",".",".",".",".",".",".",".",".",".",".",".",".",".",".",".",".",".",".",".",".",".",".",".",".","."],[3,"h",5,5,5,5,5,"p",3,"h",5,5,"/",7,7,7,7,7,"p",5,"h",7,7,"/",8,8,8,8,8,"p",7,"h",8,8,"/",10,10,10,10,10,"p",8,"h",10],[".",".",".",".",".",".",".",".",".",".",".",".",".",".",".",".",".",".",".",".",".",".",".",".",".",".",".",".",".",".",".",".",".",".",".",".",".",".",".",".",".",".",".","."]],[[".",".",".",".",".",".",".",".",".",".",".",".",".",".",".","."],[".",".",".",".",".",".",".",".",".",".",".",".",".",".",".","."],[10,"/",12,12,12,12,12,10,10,10,"h",12,12,13,"\\",12],[".",".",".",".",".",".",".",".",".",".",".",".",".",".",".","."]]],"numberofstrings":4,"notes":["DsEb","AsBb","F","C"],"capo":0,"stringnotes":["Eb2","Bb1","F1","C1"],"comments":["Stave 1:","Stave 2:","Stave 3:","Stave 4:","Stave 5:","Stave 6:","Stave 7:","Stave 8:","Stave 9:","Stave 10:","Stave 11:","Stave 12:","Stave 13:","Stave 14:","Stave 15:","Stave 16:","Stave 17:","Stave 18:","Stave 19:","Stave 20:","Stave 21:","Stave 22:","Stave 23:","Stave 24:","Stave 25:"],"timing":[["W",null,"W","W","W","W","W","W","W","W",null,"W","W","W","W","W","W","W",null,"W","W","W","W","W","W","W","W",null,"W"],["W",null,"W","W","W","W","W","W","W","W",null,"W","W","W","W","W","W","W",null,"W","W","W","W","W","W","W","W",null,"W"],["W",null,"W","W","W","W",null,"W","W","W","W",null,"W","W","W","W",null,"W","W","W","W",null,"W","W","W","W",null,"W","W","W","W","W","W",null,"W","W","W"],["W",null,"W","W","W","W",null,"W","W","W","W",null,"W","W","W","W",null,"W","W","W","W",null,"W","W","W","W",null,"W","W","W","W","W","W","W","W","W","W"],["W",null,"W","W","W","W","W",null,"W",null,"W","W",null,"W","W","W","W","W","W","W",null,"W","W","W","W","W",null,"W",null,"W","W",null,"W","W","W","W","W","W","W","W","W",null,"W","W"],["W",null,"W","W","W","W","W",null,"W",null,"W","W",null,"W","W","W","W","W","W","W",null,"W","W","W","W","W",null,"W",null,"W","W",null,"W","W","W","W","W",null,"W",null,"W"],["W",null,"W","W","W","W","W",null,"W",null,"W","W",null,"W","W","W","W","W","W","W",null,"W","W","W","W","W",null,"W",null,"W","W",null,"W","W","W","W","W",null,"W",null,"W"],["W",null,"W","W","W","W","W",null,"W",null,"W","W",null,"W","W","W","W","W","W","W",null,"W","W","W","W","W",null,"W",null,"W","W",null,"W","W","W","W","W",null,"W",null,"W"],["W",null,"W","W","W","W",null,"W","W","W","W",null,"W","W","W","W",null,"W","W","W","W",null,"W","W","W","W",null,"W","W","W","W","W","W",null,"W","W","W"],["W",null,"W","W","W","W",null,"W","W","W","W",null,"W","W","W","W",null,"W","W","W","W",null,"W","W","W","W",null,"W","W","W","W","W","W",null,"W","W","W"],["W","W","W","W","W","W","W","W","W","W","W","W",null,"W","W","W","W","W","W","W","W","W","W","W","W","W","W","W","W"],["W","W","W","W","W","W","W","W","W","W","W","W",null,"W","W","W",null,"W","W",null,"W","W",null,"W","W","W","W"],["W",null,"W","W","W","W","W","W","W","W","W","W","W","W","W","W","W","W","W","W","W","W","W","W","W","W","W","W","W","W","W","W","W","W","W","W","W","W","W","W","W","W","W",null,"W",null,"W","W"],["W",null,"W","W","W","W","W","W","W","W","W","W","W",null,"W","W","W","W","W","W","W","W","W","W","W","W","W","W","W",null,"W","W","W","W","W","W","W","W","W",null,"W","W","W","W","W","W","W","W",null,"W","W"],["W","W","W","W","W","W","W","W","W","W","W","W","W","W","W","W","W","W","W","W"],["W","W",null,"W","W","W","W","W","W","W","W","W",null,"W",null,"W","W","W","W","W","W","W","W","W","W","W","W",null,"W","W","W","W","W","W","W","W"],["W","W",null,"W","W","W","W",null,"W","W","W","W",null,"W",null,"W","W",null,"W","W","W","W",null,"W","W","W","W",null,"W","W","W","W","W","W","W","W"],["W","W","W","W","W","W","W","W","W","W","W","W","W","W","W","W","W",null,"W","W","W","W","W","W","W","W","W","W","W","W","W","W","W",null,"W",null,"W"],["W","W","W","W","W","W","W","W","W","W","W","W","W","W",null,"W",null,"W","W",null,"W","W"],["W","W",null,"W","W","W","W",null,"W","W","W","W",null,"W",null,"W","W","W","W","W",null,"W","W","W","W",null,"W","W","W","W","W","W"],["W","W",null,"W","W","W","W",null,"W","W","W","W",null,"W",null,"W","W","W","W","W",null,"W","W","W","W",null,"W","W","W",null,"W"],["W",null,"W","W","W","W","W",null,"W",null,"W","W",null,"W","W","W","W","W","W","W",null,"W","W","W","W","W",null,"W",null,"W","W",null,"W","W","W","W",null,"W","W"],["W",null,"W","W","W","W",null,"W",null,"W","W",null,"W","W","W","W","W","W","W",null,"W","W","W","W","W",null,"W",null,"W","W",null,"W","W","W","W",null,"W","W","W"],["W",null,"W","W","W","W","W",null,"W",null,"W","W",null,"W","W","W","W","W","W","W",null,"W","W",null,"W","W","W","W","W",null,"W",null,"W","W",null,"W","W","W","W","W",null,"W",null,"W"],["W",null,"W","W","W","W","W","W","W","W",null,"W","W","W",null,"W"]],"timingvisible":false,"tabcounter":45,"stave":13,"totalstaves":25,"instrument":"4bass","selectedtuning":"4bass","version":"13"}

Member for

1 month 3 weeks
Submitted by John Dowling on Fri, 2020-09-11 18:11