Centipede Queen Lead Guitar 2

01234567891011121314151617181920212223
E
B
G
D
A
E
B
0 1 2 3 4 5 6 7 8 9 10 11 12 13 14 15 16 17 18 19 20 21 22 23
(/) Slide Up  (\) Slide Down  (h) Hammer On  (p) Pull Off  (b) Bend (r) Release (v) Vibrato

Chorus

B|-------------------------------------------------------------------------:|-x-2-
G|-----------7h9-9b10b9---9-9b10b9-7-------------7h9-9b10b9-7-9b10b9-7-----:|-----
D|-9---9-7h9------------------------h9-9---9-7h9-----------------------7-9-:|-----
A|-------------------------------------------------------------------------:|-----
E|-------------------------------------------------------------------------:|-----
B|-------------------------------------------------------------------------:|-----

Solo

B|---------------------------------------------------------------------
G|-9b10b9-7---------7h9-9b10b9-7-9b10b9-7-9b10b9-7---------------------
D|----------9-9p7h9--------------------------------9-9p7---7-----------
A|------------------------------------------------------h9--h9-7\5-----
E|----------------------------------------------------------------h7---
B|---------------------------------------------------------------------

Chorus

B|-------------------------------------------------------------------------:|-x-4-
G|-----------7h9-9b10b9---9-9b10b9-7-------------7h9-9b10b9-7-9b10b9-7-----:|-----
D|-9---9-7h9------------------------h9-9---9-7h9-----------------------7-9-:|-----
A|-------------------------------------------------------------------------:|-----
E|-------------------------------------------------------------------------:|-----
B|-------------------------------------------------------------------------:|-----

							http://www.guitartabcreator.com
Chords

Instruments
{"strings":[[[".","_",".",".",".",".",".",".",".",".",".",".",".",".","_",".",".",".",".",".",".",".",".",".",".","_",".",".",".",".",".",".",".",".",".",".",".",".",".",".",".",".",".",".",".",".",".",":|","x2",2],[".","_",".",".",".",".",7,"h",9,9,"b",10,"b",9,"_",9,9,"b",10,"b",9,7,".",".",".","_",".",".",".",".",7,"h",9,9,"b",10,"b",9,7,9,"b",10,"b",9,7,".",".",":|",".","."],[9,"_",9,7,"h",9,".",".",".",".",".",".",".",".","_",".",".",".",".",".",".",".","h",9,9,"_",9,7,"h",9,".",".",".",".",".",".",".",".",".",".",".",".",".",".",".",7,9,":|",".","."],[".","_",".",".",".",".",".",".",".",".",".",".",".",".","_",".",".",".",".",".",".",".",".",".",".","_",".",".",".",".",".",".",".",".",".",".",".",".",".",".",".",".",".",".",".",".",".",":|",".","."],[".","_",".",".",".",".",".",".",".",".",".",".",".",".","_",".",".",".",".",".",".",".",".",".",".","_",".",".",".",".",".",".",".",".",".",".",".",".",".",".",".",".",".",".",".",".",".",":|",".","."],[".","_",".",".",".",".",".",".",".",".",".",".",".",".","_",".",".",".",".",".",".",".",".",".",".","_",".",".",".",".",".",".",".",".",".",".",".",".",".",".",".",".",".",".",".",".",".",":|",".","."]],[[".",".",".",".",".",".",".",".",".",".",".",".",".",".",".",".",".",".",".",".",".",".",".",".",".",".",".",".",".",".",".",".",".",".",".",".",".",".",".",".",".",".",".",".",".",".",".","_"],[9,"b",10,"b",9,7,".",".",".",".",".",".",7,"h",9,9,"b",10,"b",9,7,9,"b",10,"b",9,7,9,"b",10,"b",9,7,".",".",".",".",".",".",".",".",".",".",".",".",".",".","_"],[".",".",".",".",".",".",9,9,"p",7,"h",9,".",".",".",".",".",".",".",".",".",".",".",".",".",".",".",".",".",".",".",".",".",9,9,"p",7,".",".",7,".",".",".",".",".",".",".","_"],[".",".",".",".",".",".",".",".",".",".",".",".",".",".",".",".",".",".",".",".",".",".",".",".",".",".",".",".",".",".",".",".",".",".",".",".",".","h",9,".","h",9,7,"\\",5,".",".","_"],[".",".",".",".",".",".",".",".",".",".",".",".",".",".",".",".",".",".",".",".",".",".",".",".",".",".",".",".",".",".",".",".",".",".",".",".",".",".",".",".",".",".",".",".",".","h",7,"_"],[".",".",".",".",".",".",".",".",".",".",".",".",".",".",".",".",".",".",".",".",".",".",".",".",".",".",".",".",".",".",".",".",".",".",".",".",".",".",".",".",".",".",".",".",".",".",".","_"]],[[".","_",".",".",".",".",".",".",".",".",".",".",".",".","_",".",".",".",".",".",".",".",".",".",".","_",".",".",".",".",".",".",".",".",".",".",".",".",".",".",".",".",".",".",".",".",".",":|","x2",4],[".","_",".",".",".",".",7,"h",9,9,"b",10,"b",9,"_",9,9,"b",10,"b",9,7,".",".",".","_",".",".",".",".",7,"h",9,9,"b",10,"b",9,7,9,"b",10,"b",9,7,".",".",":|",".","."],[9,"_",9,7,"h",9,".",".",".",".",".",".",".",".","_",".",".",".",".",".",".",".","h",9,9,"_",9,7,"h",9,".",".",".",".",".",".",".",".",".",".",".",".",".",".",".",7,9,":|",".","."],[".","_",".",".",".",".",".",".",".",".",".",".",".",".","_",".",".",".",".",".",".",".",".",".",".","_",".",".",".",".",".",".",".",".",".",".",".",".",".",".",".",".",".",".",".",".",".",":|",".","."],[".","_",".",".",".",".",".",".",".",".",".",".",".",".","_",".",".",".",".",".",".",".",".",".",".","_",".",".",".",".",".",".",".",".",".",".",".",".",".",".",".",".",".",".",".",".",".",":|",".","."],[".","_",".",".",".",".",".",".",".",".",".",".",".",".","_",".",".",".",".",".",".",".",".",".",".","_",".",".",".",".",".",".",".",".",".",".",".",".",".",".",".",".",".",".",".",".",".",":|",".","."]]],"numberofstrings":6,"notes":["B","G","D","A","E","B","B"],"capo":0,"stringnotes":["B3","G3","D3","A2","E2","B2"],"comments":["Chorus","Solo","Chorus"],"timing":[["W","W","W","W",null,"W","W",null,"W","W",null,"W",null,"W","W","W","W",null,"W",null,"W","W",null,"W","W","W","W","W",null,"W","W",null,"W","W",null,"W",null,"W","W","W",null,"W",null,"W","W","W","W",null,"W","W"],["W",null,"W",null,"W","W","W","W",null,"W",null,"W","W",null,"W","W",null,"W",null,"W","W","W",null,"W",null,"W","W","W",null,"W",null,"W","W","W","W",null,"W",null,"W","W",null,"W","W",null,"W",null,"W","W"],[null,null,null,null,null,null,null,null,null,null,null,null,null,null,null,null,null,null,null,null,null,null,null,null,null,null,null,null,null,null,null,null,null,null,null,null,null,null,null,null,null,null,null,null,null,null,null,null,null,"W"]],"timingvisible":false,"tabcounter":50,"stave":2,"totalstaves":3,"instrument":"6guitar","selectedtuning":"6_standard","version":"13"}

Member for

1 year
Submitted by John Dowling on Wed, 2021-08-04 10:16