Centipede Queen Lead Guitar 1

01234567891011121314151617181920212223
E
B
G
D
A
E
B
0 1 2 3 4 5 6 7 8 9 10 11 12 13 14 15 16 17 18 19 20 21 22 23
(/) Slide Up  (\) Slide Down  (h) Hammer On  (p) Pull Off  (b) Bend (r) Release (v) Vibrato

Chorus

B|-------------------------------------------------------------------------:|-x-4-
G|-------------------------------------------------------------------------:|-----
D|-----------7h9-9b10b9---9-9b10b9-7-------------7h9-9b10b9-7-9b10b9-7-----:|-----
A|-9---9-7h9------------------------h9-9---9-7h9-----------------------7-9-:|-----
E|-------------------------------------------------------------------------:|-----
B|-------------------------------------------------------------------------:|-----

Chorus (1/2)

B|-----------------------------------------
G|-----------------------------------------
D|-----------7h9-9b10b9---9-9b10b9-7-------
A|-9---9-7h9------------------------h9-9---
E|-----------------------------------------
B|-----------------------------------------

Chorus

B|-------------------------------------------------------------------------:|-x-2-
G|-------------------------------------------------------------------------:|-----
D|-----------7h9-9b10b9---9-9b10b9-7-------------7h9-9b10b9-7-9b10b9-7-----:|-----
A|-9---9-7h9------------------------h9-9---9-7h9-----------------------7-9-:|-----
E|-------------------------------------------------------------------------:|-----
B|-------------------------------------------------------------------------:|-----

Chorus

B|-------------------------------------------------------------------------:|-x-4-
G|-------------------------------------------------------------------------:|-----
D|-----------7h9-9b10b9---9-9b10b9-7-------------7h9-9b10b9-7-9b10b9-7-----:|-----
A|-9---9-7h9------------------------h9-9---9-7h9-----------------------7-9-:|-----
E|-------------------------------------------------------------------------:|-----
B|-------------------------------------------------------------------------:|-----

							http://www.guitartabcreator.com
Chords

Instruments
{"strings":[[[".","_",".",".",".",".",".",".",".",".",".",".",".",".","_",".",".",".",".",".",".",".",".",".",".","_",".",".",".",".",".",".",".",".",".",".",".",".",".",".",".",".",".",".",".",".",".",":|","x4",4],[".","_",".",".",".",".",".",".",".",".",".",".",".",".","_",".",".",".",".",".",".",".",".",".",".","_",".",".",".",".",".",".",".",".",".",".",".",".",".",".",".",".",".",".",".",".",".",":|",".","."],[".","_",".",".",".",".",7,"h",9,9,"b",10,"b",9,"_",9,9,"b",10,"b",9,7,".",".",".","_",".",".",".",".",7,"h",9,9,"b",10,"b",9,7,9,"b",10,"b",9,7,".",".",":|",".","."],[9,"_",9,7,"h",9,".",".",".",".",".",".",".",".","_",".",".",".",".",".",".",".","h",9,9,"_",9,7,"h",9,".",".",".",".",".",".",".",".",".",".",".",".",".",".",".",7,9,":|",".","."],[".","_",".",".",".",".",".",".",".",".",".",".",".",".","_",".",".",".",".",".",".",".",".",".",".","_",".",".",".",".",".",".",".",".",".",".",".",".",".",".",".",".",".",".",".",".",".",":|",".","."],[".","_",".",".",".",".",".",".",".",".",".",".",".",".","_",".",".",".",".",".",".",".",".",".",".","_",".",".",".",".",".",".",".",".",".",".",".",".",".",".",".",".",".",".",".",".",".",":|",".","."]],[[".","_",".",".",".",".",".",".",".",".",".",".",".",".","_",".",".",".",".",".",".",".",".",".",".","_"],[".","_",".",".",".",".",".",".",".",".",".",".",".",".","_",".",".",".",".",".",".",".",".",".",".","_"],[".","_",".",".",".",".",7,"h",9,9,"b",10,"b",9,"_",9,9,"b",10,"b",9,7,".",".",".","_"],[9,"_",9,7,"h",9,".",".",".",".",".",".",".",".","_",".",".",".",".",".",".",".","h",9,9,"_"],[".","_",".",".",".",".",".",".",".",".",".",".",".",".","_",".",".",".",".",".",".",".",".",".",".","_"],[".","_",".",".",".",".",".",".",".",".",".",".",".",".","_",".",".",".",".",".",".",".",".",".",".","_"]],[[".","_",".",".",".",".",".",".",".",".",".",".",".",".","_",".",".",".",".",".",".",".",".",".",".","_",".",".",".",".",".",".",".",".",".",".",".",".",".",".",".",".",".",".",".",".",".",":|","x4",2],[".","_",".",".",".",".",".",".",".",".",".",".",".",".","_",".",".",".",".",".",".",".",".",".",".","_",".",".",".",".",".",".",".",".",".",".",".",".",".",".",".",".",".",".",".",".",".",":|",".","."],[".","_",".",".",".",".",7,"h",9,9,"b",10,"b",9,"_",9,9,"b",10,"b",9,7,".",".",".","_",".",".",".",".",7,"h",9,9,"b",10,"b",9,7,9,"b",10,"b",9,7,".",".",":|",".","."],[9,"_",9,7,"h",9,".",".",".",".",".",".",".",".","_",".",".",".",".",".",".",".","h",9,9,"_",9,7,"h",9,".",".",".",".",".",".",".",".",".",".",".",".",".",".",".",7,9,":|",".","."],[".","_",".",".",".",".",".",".",".",".",".",".",".",".","_",".",".",".",".",".",".",".",".",".",".","_",".",".",".",".",".",".",".",".",".",".",".",".",".",".",".",".",".",".",".",".",".",":|",".","."],[".","_",".",".",".",".",".",".",".",".",".",".",".",".","_",".",".",".",".",".",".",".",".",".",".","_",".",".",".",".",".",".",".",".",".",".",".",".",".",".",".",".",".",".",".",".",".",":|",".","."]],[[".","_",".",".",".",".",".",".",".",".",".",".",".",".","_",".",".",".",".",".",".",".",".",".",".","_",".",".",".",".",".",".",".",".",".",".",".",".",".",".",".",".",".",".",".",".",".",":|","x4",4],[".","_",".",".",".",".",".",".",".",".",".",".",".",".","_",".",".",".",".",".",".",".",".",".",".","_",".",".",".",".",".",".",".",".",".",".",".",".",".",".",".",".",".",".",".",".",".",":|",".","."],[".","_",".",".",".",".",7,"h",9,9,"b",10,"b",9,"_",9,9,"b",10,"b",9,7,".",".",".","_",".",".",".",".",7,"h",9,9,"b",10,"b",9,7,9,"b",10,"b",9,7,".",".",":|",".","."],[9,"_",9,7,"h",9,".",".",".",".",".",".",".",".","_",".",".",".",".",".",".",".","h",9,9,"_",9,7,"h",9,".",".",".",".",".",".",".",".",".",".",".",".",".",".",".",7,9,":|",".","."],[".","_",".",".",".",".",".",".",".",".",".",".",".",".","_",".",".",".",".",".",".",".",".",".",".","_",".",".",".",".",".",".",".",".",".",".",".",".",".",".",".",".",".",".",".",".",".",":|",".","."],[".","_",".",".",".",".",".",".",".",".",".",".",".",".","_",".",".",".",".",".",".",".",".",".",".","_",".",".",".",".",".",".",".",".",".",".",".",".",".",".",".",".",".",".",".",".",".",":|",".","."]]],"numberofstrings":6,"notes":["B","G","D","A","E","B","B"],"capo":0,"stringnotes":["B3","G3","D3","A2","E2","B2"],"comments":["Chorus","Chorus (1/2)","Chorus","Chorus"],"timing":[["W","W","W","W",null,"W","W",null,"W","W",null,"W",null,"W","W","W","W",null,"W",null,"W","W",null,"W","W","W","W","W",null,"W","W",null,"W","W",null,"W",null,"W","W","W",null,"W",null,"W","W","W","W",null,"W","W"],[null,null,null,null,null,null,null,null,null,null,null,null,null,null,null,null,null,null,null,null,null,null,null,null,null,"W"],[null,null,null,null,null,null,null,null,null,null,null,null,null,null,null,null,null,null,null,null,null,null,null,null,null,null,null,null,null,null,null,null,null,null,null,null,null,null,null,null,null,null,null,null,null,null,null,null,null,"W"],[null,null,null,null,null,null,null,null,null,null,null,null,null,null,null,null,null,null,null,null,null,null,null,null,null,null,null,null,null,null,null,null,null,null,null,null,null,null,null,null,null,null,null,null,null,null,null,null,null,"W"]],"timingvisible":false,"tabcounter":50,"stave":3,"totalstaves":4,"instrument":"6guitar","selectedtuning":"6_standard","version":"13"}

Member for

1 year
Submitted by John Dowling on Wed, 2021-08-04 10:04