Sound will begin in 5 seconds

You Gotta Move

Chords
01234567891011121314151617181920212223
E
B
G
D
A
E
B
0 1 2 3 4 5 6 7 8 9 10 11 12 13 14 15 16 17 18 19 20 21 22 23
Song Science #1: How Pros Use 6 Chords to Write Hit Songs
(/) Slide Up  (\) Slide Down  (h) Hammer On  (p) Pull Off  (b) Bend (r) Release (v) Vibrato

Stave 1:

E|----------------0-----------------|--
B|----------------0-----0--7--7--0--|--
G|--5--9--10--12--0--8--0-----------|--
D|--0--0--0---0---0--6--0-----------|--
A|----------------------------------|--
E|----------------------------------|--

Stave 2:

E|--0-----------------------------------------------
B|--0--3--4--0-----7--7--7--7--5--5--5--5--7--3--4--
G|--0-----------------------------------------------
D|--0-----------------------------------------------
A|--------------------------------------------------
E|--------------------------------------------------

Stave 3:

E|-----------1--0-----------------------1--0-----------
B|--0-----0--------0--------0--4-----0--------0-----4--
G|--------------------0--3-----------------------0-----
D|-----0--------------------------0--------------------
A|-----------------------------------------------------
E|-----------------------------------------------------

Stave 4:

E|-----------------------------------0-----------------
B|-----------------------------------0-----------4--5--
G|--5--3--0--0--0--0--3--5--3--5-----0--------5--------
D|-----------------------------------0-----0-----------
A|-----------------------------------0-----------------
E|--------------------------------0-----3--------------

Stave 5:

E|-----------------0--------------------
B|--7--7--7--0--4--0--3--4--0--7--7--7--
G|-----------------0--------------------
D|-----------------0--------------------
A|--------------------------------------
E|--------------------------------------

Stave 6:

E|--------------------------------0-----------------------
B|--7--5--5--5--5--7--3--4--0-----0--3--4--0--------0--3--
G|--------------------------------0-----------0--3--------
D|-----------------------------0--0-----------------------
A|--------------------------------------------------------
E|--------------------------------------------------------

Stave 7:

E|--0--------------------------------------------
B|--0-----0-----4--------------------------------
G|--0--------------5--3--0--0--0--0--3--5--3--5--
D|--0--3-----0-----------------------------------
A|-----------------------------------------------
E|-----------------------------------------------

http://www.guitartabcreator.com
Guitar Tab Creator is intended to store guitar tab created through the tool. It currently does not support in-line text editing. Any text you place in here will be lost. If you need to comment on your tab, please use the "Tab Notes" section located below.